PrimaNota.ru - самый крупный в мире бесплатный архив песенных текстов, аккордов, табулатур и нот


Nofx - East Bay - текст песни, бас-таба, видео

Регистрация Запомнить меня
Войти через:  Facebook Google Twitter Vk Yandex Mail.ru

Nofx - East Bay - текст песни, бас-таба, видео

Печатать
Просмотров: 163
Уроки эстрадного вокала в Санкт-Петербурге
++++++++++++++++++
| NOFX- East Bay |
++++++++++++++++++


"I bet I got way more piercings than you..."

Tuning: Standard EADG


Intro
1.
G|---------------------------------------------------------|
D|---3-33----------3-33----------3-33----------3-33--------|
A|-00-----335-55-00-----335-55-00-----335-55-00-----335-55-|
E|---------------------------------------------------------|

Verse          (Picking really fast)
"Get out of my way..."
2.
G|-------------------------------------------------------------------------|
D|---333333------------333333------------333333------------333333----------|
A|-00-------33555555-00-------33555555-00-------33555555-00-------33555555-|
E|-------------------------------------------------------------------------|

"I bet I got way more piercings than you..."
3.
G|------------------------------------------------|
D|---------------------3-33----------3-33---------|
A|-------------------00-----335-55-00-----33-5-55-|
E|-11111111-11111111------------------------------|

Verse
"I just love this town..."
4.
G|-------------------------------------------------------------------------|
D|---333333------------333333------------333333------------333333----------|
A|-00-------33555555-00-------33555555-00-------33555555-00-------33555555-|
E|-------------------------------------------------------------------------|

"She dont pay rent..."
5.
G|--------------------------------------------------|
D|---------------------3-33-------------------------|
A|-------------------00-----335-55-7p5-7p5-7p5-3-0x-|
E|-11111111-11111111--------------------------------|

6.
G|-----------------------------|
D|---3-33----------3-33--------|
A|-00-----335-55-00-----335-55-|
E|-----------------------------|

Verse
"When we go out tonight..."
7.
G|-------------------------------------------------------------------------|
D|---555555------------555555------------555555------------555555----------|
A|-22-------55777777-22-------55777777-22-------55777777-22-------55777777-|
E|-------------------------------------------------------------------------|

"Ill get my picture..."
8.
G|-----------------------------------------------|
D|-----------------------------------------------|
A|-------------------225-55-557-77-225-55-557-77-|
E|-33333333-33333333-----------------------------|

Verse
"Gotta get those flyers out..."
9.
G|-------------------------------------------------------------------------|
D|---555555------------555555------------555555------------555555----------|
A|-22-------55777777-22-------55777777-22-------55777777-22-------55777777-|
E|-------------------------------------------------------------------------|

"Fame fortion..."
10.
G|---------------------------------------------------------------------------|
D|---------------------------------------------------------------------------|
A|-------------------225-55-557-77-225-55-557-77-225-55-557-77-225-55-557-77-|
E|-33333333-33333333---------------------------------------------------------|

"Rock city news..."
11.
G|--------------------------------------------------|
D|--------------------------------------------------|
A|-------------------225-55-557-77-9p7-9p7-9p7-5-2x-|
E|-33333333-33333333--------------------------------|


Please rate thank you!


Lyrics:


Get out of my way
Can't you see im from East Bay
I Know Blatz, down with E.B.U.
I bet I got way more piercings than you

I just love this town
My girlfriend weighs 84 pounds
Met her at the New Method wher I get in for free
She don't pay rent neither do me

When we go out tonight
Gotta get my hair just right
Prodius pads with 2 inch sole
I'll get my picture with Murray Bowles

Gotta get those flyers out
Might get signed to lookout
After that i'll go far
Fame, Fortion, D.M.R.
Rock City News



+++++++++++++++++++++++++++++++++
| RaiLeff                       |
| Underground__Dora@Hotmail.Com |
+++++++++++++++++++++++++++++++++
Добавлено: 31.05.2012
Другие материалы по этой песне:
  • Аккорды и текст

Страница создана 31.05.2012
http://primanota.ru/nofx/east-bay-chords.htm
Привет, Гость.
Предлагаем пройти революционный курс по гитаре.
Подарок от PrimaNota.Ru, забирай!