PrimaNota.ru - самый крупный в мире бесплатный архив песенных текстов, аккордов, табулатур и нот


Nofx - Dinosaurs Will Die - аккорды и текст, таба, бас-таба, видео

Регистрация Запомнить меня
Войти через:  Facebook Google Twitter Vk Yandex Mail.ru

Nofx - Dinosaurs Will Die - аккорды и текст, таба, бас-таба, видео

Печатать
Просмотров: 219
Dinosaurs Will Die
Nofx
		   NOFX

dinosaurs will die

tabbed by alan stewart

------------------------------------|-----------------------------------------
------------------------------------|-----------------------------------------
------------------------------------|-----------------------------------------
---9-8-7-6-5--9-8-7-6-5--9-8-7-6-5--|--9-9-9-9-9-9-9-9-9-9-9-9----------------
---7-6-5-4-3--7-6-5-4-3--7-6-5-4-3--|--7-7-7-7-7-7-7-7-7-7-7-7----------------
------------------------------------|-----------------------------------------
                                                  p.m.

------------------------------------------------------------------------------
------------------------------------------------------------------------------
------------------------------------------------------------------------------
---------------------------------------------------9-8-7-6-5--9-9-9-9-9-9-9-9-
-5-5-5-5-5-5-5-5-5-5-5-5-7-7-7-7-7-7-7-7-7-7-9-9---7-6-5-4-3--7-7-7-7-7-7-7-7-
-3-3-3-3-3-3-3-3-3-3-3-3-5-5-5-5-5-5-5-5-5-5-7-7------------------------------
                     p.m.                                    p.m.
------------------------------------------------------------------------------
------------------------------------------------------------------------------
------------------------------------------------------------------------------
-9-9-9-9------------------------------------------------------5--------------5
-7-7-7-7-5-5-5-5-5-5-5-5-5-5-5-5-7-7-7-7-7-7-7-7-7-7--7-7 5 7---5-7--7-7 5 7--
---------3-3-3-3-3-3-3-3-3-3-3-3-5-5-5-5-5-5-5-5-5-5--------------------------
                          p.m.

------------------------------------------------------------------------------
------------------------------------------------------------------------------
------------------------------------------------------------------------------
-------9-9-9-9-9-9-9-9-9-9-9-12-12-12-12-12-12-12-12-12-7-7-7-7-7-7-7-7-7-----
-5-----7-7-7-7-7-7-7-7-7-7-7-10-10-10-10-10-10-10-10-10-5-5-5-5-5-5-5-5-5-----
------------------------------------------------------------------------------


------------------------------------------------------------------------------
------------------------------------------------------------------------------
------------------------------------------------------------------------------
---------5--------------5-----9-9-9-9-9-9-9-9-9-------------------7-7-7-7-7-7-
-7-7-5-7---5 7--7-7-5-7--5-7--7-7-7-7-7-7-7-7-7-5-5-5-5-5-5-5-5-5-5-5-5-5-5-5-
------------------------------------------------3-3-3-3-3-3-3-3-3-------------

------------------------------------------------------------------------------
------------------------------------------------------------------------------
------------------------------------------------------------------------------
-7-7-7-9-9-9-9-9-9-9-9---------------9-9-9-9-9-9-9-9-9-9-9-7-5-5-5-5-5-5-5-5--
-5-5-5-7-7-7-7-7-7-7-7-7-7-7-7-7-7-7-7-7-7-7-7-7-7-7-7-7-7-5-3-3-3-3-3-3-3-3--
-----------------------5-5-5-5-5-5-5------------------------------------------


-------------------------------------------
-------------------------------------------
-------------------------------------------
-9-9-9-9-9-9-9-9---------------------------
-7-7-7-7-7-7-7-7-7-7-7-7-7-7-7-7-7-7-7-7-7-
-----------------5-5-5-5-5-5-5-5-5-5-5-5-5-     
Добавлено: 06.11.2013
Другие материалы по этой песне:

Страница создана 01.03.2012
http://primanota.ru/nofx/dinosaurs-will-die-chords.htm
Привет, Гость.
Предлагаем пройти революционный курс по гитаре.
Подарок от PrimaNota.Ru, забирай!