PrimaNota.ru - самый крупный в мире бесплатный архив песенных текстов, аккордов, табулатур и нот


Nofx - Concerns Of A Gop Neo-phyte - таба, видео

Регистрация Запомнить меня
Войти через:  Facebook Google Twitter Vk Yandex Mail.ru

Nofx - Concerns Of A Gop Neo-phyte - таба, видео

Печатать
Просмотров: 83
Intro:

E|-----------------------|------------------|
B|-----------------------|------------------|
G|--2-22--5-7-5-2---2-5--|--2-22--5-7-5-22--|
D|--2-22--5-7-5-2-5-2-5--|--2-22--5-7-5-22--|
A|--0-00--3-5-3-0-5-0-3--|--0-00--3-5-3-00--|
E|----------------3------|------------------|

Verse:

E|---------------|
B|---------------|
G|--2----5-------|
D|--2----5----5--|
A|--0----3----5--|
E|------------3--|
    A    C    G


Truth, now like a viral infection
The GOP developed a vaccine
         A
Get your shot from your local Christian reading room
     G                                 A
Make sure your clothes are blue and neoprene
                C
Windows closed, television's on
G                     A
Talk show radio where everyone agrees
    A                   C
The plague is here, but exposure is avoidable
G                                        
Turn up mind, relinquish control

Pre-verse:

E|------------------|
B|------------------|
G|--2-22--5-7-5-22--|
D|--2-22--5-7-5-22--|
A|--0-00--3-5-3-00--|
E|------------------|

Verse:

(Question...)
E|-----------------------|------------------------------------|
B|-----------------------|------------------------------------|
G|--2-22--5-7--99999999--|--10-1010--7-5-2--1010101010101010--|
D|--2-22--3-5--77777777--|--10-1010--7-5-2--1010101010101010--|
A|--0-00-----------------|---8--8-8--5-3-0---8-8-8-8-8-8-8-8--|
E|-----------------------|------------------------------------|

(We're going to...)
E|-------------------------------|-----------------------|
B|-------------------------------|-----------------------|
G|--------5-2--1212121212121212--|--------5--------------|
D|--5-55--5-2--1212121212121212--|--7-77--5-5--77777777--|
A|--5-55--3-0--1010101010101010--|--7-77--3-5--77777777--|
E|--3-33-------------------------|--5-55----3--55555555--|

(What kind of...)
E|----------------------------------|-------------------------------|
B|----------------------------------|-------------------------------|
G|--10-1010--7-5--1010101010101010--|--------5-2--1212121212121212--|
D|--10-1010--7-5--1010101010101010--|--5-55--5-2--1212121212121212--|
A|---8--8-8--5-3---8-8-8-8-8-8-8-8--|--5-55--3-0--1010101010101010--|
E|----------------------------------|--3-33-------------------------|

Post-verse:

E|-----------------------|
B|-----------------------|
G|--2-22--5-7-5-2---2-5--|
D|--2-22--5-7-5-2-5-2-5--|
A|--0-00--3-5-3-0-5-0-3--|
E|----------------3------|

Repeat Verse

Post-verse:

E|-----------------------|------------------|
B|-----------------------|------------------|
G|--2-22--5-7-5-2---2-5--|--2-22--5-7-5-22--|
D|--2-22--5-7-5-2-5-2-5--|--2-22--5-7-5-22--|
A|--0-00--3-5-3-0-5-0-3--|--0-00--3-5-3-00--|
E|----------------3------|------------------|

Bridge:

E|---------------|
B|---------------|
G|--2------------|
D|--2----3-------|
A|--0----3----5--|
E|-------1----2--|
    A    F   D/F#


A                 F
I wasn't thinking of me
                  D/F#
I wasn't thinking clearly
              F
My deepest apologies
                  A
I wasn't thinking of me
                  F
I wasn't thinking of me
                  D/F#
I wasn't thinking of me
                  F
I wasn't thinking of me

---------------------------------------------

End Verse:

(I wasn't thinking...)
E|-----------------------|------------------------------------|
B|-----------------------|------------------------------------|
G|--2-22--5-7--99999999--|--10-1010--7-5-2--1010101010101010--|
D|--2-22--3-5--77777777--|--10-1010--7-5-2--1010101010101010--|
A|--0-00-----------------|---8--8-8--5-3-0---8-8-8-8-8-8-8-8--|
E|-----------------------|------------------------------------|

(Tolerance indicted...)
E|-------------------------------|
B|-------------------------------|
G|--------5-2--1212121212121212--|
D|--5-55--5-2--1212121212121212--|
A|--5-55--3-0--1010101010101010--|
E|--3-33-------------------------|

Ending: Play 3x

E|-----------------------|
B|-----------------------|
G|--2-22--5-7-5-2---2-5--|
D|--2-22--5-7-5-2-5-2-5--|
A|--0-00--3-5-3-0-5-0-3--|
E|----------------3------|
Добавлено: 18.03.2012
Другие материалы по этой песне:

Страница создана 01.03.2012
http://primanota.ru/nofx/concerns-of-a-gop-neo-phyte-chords.htm
Привет, Гость.
Предлагаем пройти революционный курс по гитаре.
Подарок от PrimaNota.Ru, забирай!