PrimaNota.ru - самый крупный в мире бесплатный архив песенных текстов, аккордов, табулатур и нот


Nofx - Cokie The Clown (album) - бас-таба, видео

Регистрация Запомнить меня
Войти через:  Facebook Google Twitter Vk Yandex Mail.ru

Nofx - Cokie The Clown (album) - бас-таба, видео

Печатать
Просмотров: 185
+++++++++++++++++++++++++
| NOFX- Cokie The Clown |
+++++++++++++++++++++++++


Bass Tab
Album: "Cokie The Clown" -- 2009


I bought this last saturday,
it's short but has really good songs
I hope you enjoy them and my bass tabs
Please rate, and thank you for taking your time!


RaiLeff

______________________________________________________

Tuning: Standard EADG 


Keys:

| x: Mute
| ~: Let Ring
| /: Slide Up
| \: Slide Down
| h: Hammer On
| p: Pull Off


Track List:


1. Cokie The Clown
2. Straight Outta Massachusetts
3. Fermented And Flailing
4. Codependence Day
5. My Orphan Year (Acoustic)


__________________________________________________________

1.

+++++++++++++++++++++++++
| NOFX- Cokie The Clown |
+++++++++++++++++++++++++


"I'm sure you'll have fun watching me juggle
8 balls at one time I'm no fucking mime..."

Tuning: Standard EADG


Intro
1.
G|------------------------------------------------------------------|
D|------------------------------------------------------------------|
A|------------------------------------------------------------------|
E|-11-1-1-100-0-0-011-1-1-100-0-0-011-1-1-100-0-0-011-1-1-100-0-0-0-|--These are 1s

2.
G|-------------------------------------|
D|-------------------------------------|
A|-11111111-11111111-11111111-11111111-|
E|-------------------------------------|

Verse
"All the way from Palm Springs..."
3.
G|---------------------------------------------------------------------|
D|---------------------------------------------------------------------|
A|---------------------------------11111111-11111111-11111111-11111111-|
E|-11-1-1-100-0-0-011-1-1-100-0-0-0------------------------------------|

"Show him a warm welcome..."
4.
G|----------------------------------|
D|----------------------------------|
A|----------------------------------|
E|-11-1-1-100-0-0-011-1-1-100-0-0-0-|

Chorus
"Greetings all hello..."
5.
G|-------------------------------------------------------------------------|
D|-------------------33333333-33333333-------------------00000000-000000---|
A|-11111111-11111111-------------------00000000-00000000----------------33-|--x2
E|-------------------------------------------------------------------------|

"The squirting flower..."
6.
G|-------------------------------------------------------------------------|
D|-------------------------------------------------------------------------|
A|-11111111-11111111-33333333-33333333-------------------55555555-55555555-|
E|-------------------------------------11111111-11111111-------------------|

"You should be OK..."
7.
G|-------------------------------------|
D|-------------------55555555-55555555-|
A|-11111111-11111111-------------------|
E|-------------------------------------|

Outro
8.
G|---------------------------------------------------------------------|
D|---------------------------------------------------------------------|
A|---------------------------------11111111-11111111-11111111-11111111-|
E|-11-1-1-100-0-0-011-1-1-100-0-0-0------------------------------------|

Verse
"He's got oversized shoes..."
9.
G|---------------------------------------------------------------------|
D|---------------------------------------------------------------------|
A|---------------------------------11111111-11111111-11111111-11111111-|
E|-11-1-1-100-0-0-011-1-1-100-0-0-0------------------------------------|

"That is real blood dripping..."
10.
G|----------------------------------|
D|----------------------------------|
A|----------------------------------|
E|-11-1-1-100-0-0-011-1-1-100-0-0-0-|

Chorus
"Im Cokie the Clown..."
11.
G|-------------------------------------------------------------------------|
D|-------------------33333333-33333333-------------------00000000-000000---|
A|-11111111-11111111-------------------00000000-00000000----------------33-|--x2
E|-------------------------------------------------------------------------|

"The fudge has been lined..."
12.
G|-------------------------------------------------------------------------|
D|-------------------------------------33333333-33333333-------------------|
A|-11111111-11111111-33333333-33333333-------------------55555555-55555555-|
E|-------------------------------------------------------------------------|

"In the lemonade..."
13.
G|-------------------------------------|
D|-------------------------------------|
A|-11111111-11111111-------------------|
E|-------------------33333333-33333333-|

Outro
"He's the happiest clown..."
14.
G|-------------------------------------------------------------------|
D|-------------------------------------------------------------------|
A|-------------------------------------------------------------------|
E|-11-1-1-100-0-0-011-1-1-100-0-0-011-1-1-100-0-0-01~----------------|


Lyrics

All the way from Palm Springs, just out of detox
Show him a warm welcome, let's get some applause

Greetings all, hello welcome to my show
I'm sure you'll have fun watching me juggle
8 balls at one time I'm no fucking mime
I play practical jokes this squirting flower
That wasn't flour that blew up your nose
It's my special blend of Ex, Coke and K
You should be okay in several hours

He's got oversized shoes, and ill fitting clothes
That is real blood dripping from his fake red nose

I'm Cokie the Clown I will trip you down 
Those 12 giant steps I brought you all presents
Against good judgment but being a good host
You all have been dosed the kettle corn's been laced
The fudge has been lined you're having a great time
But you might not recall from rohypnol 
In the lemonade cokie homemade

He's the happiest clown with the biggest frown
He's Cokie the Clown 

________________________________________________________

2.

++++++++++++++++++++++++++++++++++++++
| NOFX- Straight Outta Massachusetts |
++++++++++++++++++++++++++++++++++++++


"I moved to California to the San Fernando Valley..."


Tuning: Standard EADG



Chorus
"Straight outta Massachusetts..."
1.
G|----------------------------------|
D|---------3-33-333--------3-33-333-|
A|-3-33-333--------3-33-333---------|
E|----------------------------------|

Verse
"I moved to California..."
2.
G|-------------------------------------------------------------------------|
D|-------------------33333333----------------------------33333333-55555555-|
A|-33333333-11111111----------33333333-33333333-11111111-------------------|
E|-------------------------------------------------------------------------|

"I moved in with my mother..."
3.
G|-------------------------------------------------------------------------|
D|----------------------------33333333-------------------33333333-33333333-|
A|-33333333-11111111-00000000----------33333333-11111111-------------------|
E|-------------------------------------------------------------------------|

Chorus
"Straight outta Massachusetts..."
4.
G|------------------------------------------------------------------------|
D|---------3-33-333--------3-33-333-00000000-0000-0~----------------------|
A|-3-33-333--------3-33-333-----------------------------------------------|
E|---------------------------------------------------0~-11111111-11111111-|

Verse
"I moved from Massachusetts, cuz I couldnt be controlled..."
5.
G|-------------------------------------------------------------------------|
D|-------------------33333333----------------------------33333333-55555555-|
A|-33333333-11111111----------33333333-33333333-11111111-------------------|
E|-------------------------------------------------------------------------|

"I moved from Massachusetts when I was five years old..."
6.
G|-------------------------------------------------------------------------|
D|----------------------------33333333-------------------3x----------------|
A|-33333333-11111111-00000000----------3x-------11x----------------3333x---|
E|-------------------------------------------------------------------------|


Lyrics:


I moved from Massachusetts 'cause I couldn't be controlled.
I moved from Massachusetts 'cause it was fuckin' cold.
I moved from Massachusetts 'cause I wanted to ten fold.
I moved from Massachusetts because my house got sold. 

Straight Outta Massachusetts 

I moved to California, I heard it was the place to be.
I moved to California to the San Fernando Valley.
I moved in with my mother 'cause I could afford the rent.
I moved to California, they thought I had a speech impediment.

Straight Outta Massachusetts 

I moved from Massachusetts 'cause I couldn't be controlled.
I moved from Massachusetts 'cause it was fuckin' cold.
I moved from Massachusetts 'cause I did what I was told.
I moved from Massachusetts when I was five years old. 


_______________________________________________________________________

3.

++++++++++++++++++++++++++++++++
| NOFX- Fermented And Flailing |
++++++++++++++++++++++++++++++++


"And its a long, long way down..."

Tuning: Standard EADG



Intro
1.
G|-------------------------------------------------------------|
D|-------------------------------------------------------------|
A|-------------------------------55-5555-55-555-55-5555-55-555-|
E|-------------------------------------------------------------|

2.
G|-------------------------------------------------------------|
D|-------------------------------------------------------------|
A|-7x----------------------------00-0000-00-000-00-0000-00-000-|
E|-------------------------------------------------------------|

3.
G|-------------------------------------------------------------|
D|-------------------------------44-4444-44-444-44-4444-44-444-|
A|-00-0000-00-000-00-0000-00-000-------------------------------|
E|-------------------------------------------------------------|

4.
G|--------------------------------------------------------------|
D|--------------------------------------------------------------|
A|-55-5555-55-555-55-5555-55-555-77-7777-77-777-5555x--4444x-22-|
E|--------------------------------------------------------------|

Verse
"This is not a test..."
5.
G|--------------------------------------------------------------|
D|-----------------------------------------------------------44-|
A|-00-0000-00-000-00-0000-00-000-55-5555-55-555-5555x--5555x----|
E|--------------------------------------------------------------|

"Theres really no one else..."
6.
G|-------------------------------------------------------------|
D|-------------------------------------------------------------|
A|-77-7777-77-777-77-7777-77-777-00-0000-00-000-00-0000-00-000-|
E|-------------------------------------------------------------|

"This was not ruined by a regime..."
7.
G|--------------------------------------------------------------|
D|-----------------------------------------------------------22-|
A|-00-0000-00-000-00-0000-00-000--------------------------------|
E|-------------------------------22-2222-22-222-2222x--2222x----|

"Of angry, stupid, scared..."
8.
G|-------------------------------------------------------------|
D|-------------------------------------------------------------|
A|-55-5555-55-555-55-5555-55-555-77-7777-77-777-77-7777-77-777-|
E|-------------------------------------------------------------|

Chorus
"And its a long long way down..."
9.
G|-------------------------------------------------------------|
D|-------------------------------------------------------------|
A|-55-5555-55-555-55-5555-55-555-55-5555-55-555-55-5555-55-555-|
E|-------------------------------------------------------------|

10.
G|------------------------------------------------------|
D|-77-7777-7777777-77x--------77-7777-777777-77x--------|
A|------------------------------------------------------|
E|------------------------------------------------------|

"And its a long long free dive..."
11.
G|-------------------------------------------------------------|
D|-------------------------------------------------------------|
A|-55-5555-55-555-55-5555-55-555-55-5555-55-555-55-5555-55-555-|
E|-------------------------------------------------------------|

12.
G|------------------------------------------------------|
D|-77-7777-7777777-77x--------77-7777-777777-77x--------|
A|------------------------------------------------------|
E|------------------------------------------------------|

"Its been a long time coming..."
13.
G|-------------------------------------------------------------|
D|-------------------------------------------------------------|
A|-55-5555-55-555-55-5555-55-555-77-7777-77-777-77-7777-77-777-|
E|-------------------------------------------------------------|

Verse
"Its time to redefine..."
14.
G|--------------------------------------------------------------|
D|-----------------------------------------------------------44-|
A|-00-0000-00-000-00-0000-00-000-55-5555-55-555-5555x--5555x----|
E|--------------------------------------------------------------|

"Circle the figurative wagons..."
15.
G|-------------------------------------------------------------|
D|-------------------------------------------------------------|
A|-77-7777-77-777-77-7777-77-777-00-0000-00-000-00-0000-00-000-|
E|-------------------------------------------------------------|

"A long painful de-evolution..."
16.
G|--------------------------------------------------------------|
D|-----------------------------------------------------------22-|
A|-00-0000-00-000-00-0000-00-000--------------------------------|
E|-------------------------------22-2222-22-222-2222x--2222x----|

"America as we know it is finished..."
17.
G|-------------------------------------------------------------|
D|-------------------------------------------------------------|
A|-55-5555-55-555-55-5555-55-555-77-7777-77-777-77-7777-77-777-|
E|-------------------------------------------------------------|

Chorus
"And its a long long way down..."
18.
G|-------------------------------------------------------------|
D|-------------------------------------------------------------|
A|-55-5555-55-555-55-5555-55-555-55-5555-55-555-55-5555-55-555-|
E|-------------------------------------------------------------|

19.
G|------------------------------------------------------|
D|-77-7777-7777777-77x--------77-7777-777777-77x--------|
A|------------------------------------------------------|
E|------------------------------------------------------|

"And its a long long free fall..."
20.
G|-------------------------------------------------------------|
D|-------------------------------------------------------------|
A|-55-5555-55-555-55-5555-55-555-55-5555-55-555-55-5555-55-555-|
E|-------------------------------------------------------------|

21.
G|------------------------------------------------------|
D|-77-7777-7777777-77x--------77-7777-777777-77x--------|
A|------------------------------------------------------|
E|------------------------------------------------------|

"Its been a long time coming..."
22.
G|-------------------------------------------------------------|
D|-------------------------------------------------------------|
A|-55-5555-55-555-55-5555-55-555-77-7777-77-777-77-7777-77-777-|
E|-------------------------------------------------------------|

Outro
23.
G|-------------------------------------------------------------|
D|-------------------------------------------------------------|
A|-0~----------------------------55-5555-55-555-55-5555-55-555-|
E|-------------------------------------------------------------|

24.
G|-------------------------------------------------------------|
D|-------------------------------------------------------------|
A|-7x----------------------------00-0000-00-000-0~-------------|
E|-------------------------------------------------------------|


Lyrics:

This is not a test, not true, this kind of is a test of our endurance
There's really no one left to place the blame on and hang in effigy
This was not ruined by a regime, it also took a hundred million
Of angry, stupid, scared, pathetic populace to complete the deed

And it's a long, long way down
And there's no climbing back so wave bye bye
And it's a long, long free dive
So fill your lungs with air and grab a weight
It's been a long time coming and well deserved

It's time to redefine what we call neighborhoods and start to trust your neighbors
Circle the figurative wagons and figure it's gonna be 
A long painful de-evolution that could last for decades
America as we know it, is finished, fermenting and flailing

And it's a long, long way down
The parachutes are gone so grab a smoke
And it's a long, long free fall
No signs of soft landing bon grave voyage
It's been a long time coming and well deserved 


___________________________________________________________________________

4.

++++++++++++++++++++++++++
| NOFX- Codependence Day |
++++++++++++++++++++++++++


"January first through New Year's Eve..."

Tuning: Standard EADG


Intro
1.
G|---------------------------------------------------------------------------------|
D|-6h7-777777-77777777-6h7-777777-77777777-6h7-777777-77777777-6h7-777777-77777777-|
A|---------------------------------------------------------------------------------|
E|---------------------------------------------------------------------------------|

2.
G|-------------------------------------------------------------------------|
D|-------5-7-7777777-------3-----------------7-5-5555555-------------------|
A|-3-2-0-------------3-2-0---2-2222222-3-2-0-------------3-2-0---0-0000000-|
E|-------------------------------------------------------------3-----------|

3.
G|---------------------------------------------------------------|
D|-------5-7-7777777-------3-----------------7-5-5555555---------|
A|-3-2-0-------------3-2-0---2-2222222-3-2-0-------------3-2-0---|
E|-------------------------------------------------------------3-|

Verse
"I havent got any more excuses..."
4.
G|-------------------------------------------------------------|
D|-------------------------------------------------------------|
A|-00000000----------30000000----------30000000-------------55-|--x2
E|----------11111111----------11111111----------11111111-33----|

5.
G|-------------------------------------------------------------------------|
D|-------5-7-7777777-------3-----------------7-5-5555555-------------------|
A|-3-2-0-------------3-2-0---2-2222222-3-2-0-------------3-2-0---0-0000000-|
E|-------------------------------------------------------------3-----------|

6.
G|---------------------------------------------------------------|
D|-------5-7-7777777-------3-----------------7-5-5555555---------|
A|-3-2-0-------------3-2-0---2-2222222-3-2-0-------------3-2-0---|
E|-------------------------------------------------------------3-|

Verse
"Veteran role player..."
7.
G|-------------------------------------------------------------|
D|-------------------------------------------------------------|
A|-00000000----------30000000----------30000000-------------55-|
E|----------11111111----------11111111----------11111111-33----|

"See symptons..."
8.
G|-------------------------------------------------------------------------------------------|
D|-------------------------------------------------------------33333333-33333333-3-3-3---0---|
A|-00000000----------30000000----------30000000-------------55-------------------------3---3-|
E|----------11111111----------11111111----------11111111-33----------------------------------|

Chorus
"With fireworks and power lines..."
9.
G|-------------------------------------------------------------------------|
D|-------------------33333333-33333333-------------------------------------|
A|-00000000-00000000-------------------33333333-33333333-22222222-22222222-|
E|-------------------------------------------------------------------------|

"January 1st through New Year's eve..."
10.
G|-------------------------------------------------------|
D|-------------------33333333-33333333-------------------|
A|-00000000-00000000-------------------------------------|
E|-------------------------------------33333333-33333333-|

Outro
11.
G|-------------------------------------------------------------------|
D|-------5-7-7777777-------3-----------------7-5-5555555-------------|
A|-3-2-0-------------3-2-0---2-2222222-3-2-0-------------3-2-0---0~\-|
E|-------------------------------------------------------------3-----|


Lyrics:


I haven't got any more excuses
We've gone way past alcohol abuses
It's too late
We gotta celebrate codependence day

Self-caused afflictions
Magnified with chemical addictions
We're on a date
We get to celebrate codependence day

Veteran role-player
You're the addict, I'll be the enabler
You wanna play?
Let's make every day codependence

See symptoms
It gets clearer
Kinda just like looking in a mirror
Celebrate our disarray on codependence day

With fireworks and power lines
Attempt to meld resolute minds
January first through New Year's Eve
We seem to spend rationalizing 


____________________________________________________________________

5.

+++++++++++++++++++++++++++++++++++
| NOFX- My Orphan Year (Acoustic) |
+++++++++++++++++++++++++++++++++++


No bass on this song :'(


Lyrics:

My father had dementia
He lied in bed for months
Once in a while he'd call me
And ask me to fly down
I told him that I'd love to
But I had things to do
And so he died without his son
I heard about it drunk after a show

My mother battled cancer
For over seven years
I nursed her and I held her
When time was running out
The night before she left me
I drank scotch all night
And thanked her for everything she'd done
Raising me alone wasn't much fun

So dad I can forgive you, 
But I'll never forget, 
Months I wouldn't see you and when I did
You'd be out with your friends all night
Alone and only nine
I watched the outer limits
And scared out of my mind
I wonder if you felt the same
The days before you died
I wonder if you even knew
Why I wouldn't come around
I bet if you had been there, 
There wouldn't be this song

2006 goodbye parents
For once I'm sincere
2006 that was my orphan year


_____________________________________________________________________


Thanks so much for taking your time
Please rate!!
See ya
RaiLeff


+++++++++++++++++++++++++++++++++
| RaiLeff                       |
| Underground__Dora@Hotmail.Com |
+++++++++++++++++++++++++++++++++
Добавлено: 10.03.2012
Другие материалы по этой песне:
  • Аккорды и текст

Страница создана 10.03.2012
http://primanota.ru/nofx/cokie-the-clown-album-chords.htm
Привет, Гость.
Предлагаем пройти революционный курс по гитаре.
Подарок от PrimaNota.Ru, забирай!