PrimaNota.ru - самый крупный в мире бесплатный архив песенных текстов, аккордов, табулатур и нот


Nofx - Civil Defense - таба, видео

Регистрация Запомнить меня
Войти через:  Facebook Google Twitter Vk Yandex Mail.ru

Nofx - Civil Defense - таба, видео

Печатать
Просмотров: 149
Уроки эстрадного вокала в Санкт-Петербурге
Song - Civil Defense (F.U's Cover)
Band - NOFX
Album - 11th 7 Of The Month Club.
Tabbed : Tyler Freear (SumFX)
Very Good Cover By NOFX, Originally Performed By The F.U's

Intro
(This Was Most Probably Improvised, So This Intro Is Not 100% Correct)
|--0----|--------------------------|
|--0----|-2-2-2/-3-3-3/-4----------|
|--0----|-2-2-2/-3-3-3/-4---etc----|  Keep Going Up The Neck Randomly,
|--0----|-2-2-2/-3-3-3/-4----------|  Strumming Fast. (Use A Shape 
|--0----|-0-0-0/-1-1-1/-2----------|  Barre Chords)
|--0----|--------------------------|

Verse
|-----------------------------|
|-----------------------------|
|-----------------------------|
|--9-9--12-12--9-9--10-10-----|
|--7-7--10-10--7-7--8--8------|
|-----------------------------|

Chorus (Civil Defense!)
|----------------------------------------------|
|----------------------------------------------|
|----------------------------------------------|
|--4-4-------4-4-------9-9---------9-9---------|
|--2-2--5-5--2-2--5-5--7-7--10-10--7-7--10-10--|
|-------3-3-------3-3-------8--8--------8--8---|

End (Fuck You!)
|----------------------------|---------|
|----------------------------|---------|
|----------------------------|---------|
|--10-10-10-10--10-10-10-10--|----9----|
|--8--8--8--8---8--8--8--8---|----7----|
|----------------------------|---------|

Very Cool Song, And Fun To Play!

....Structure....       Rate & Comment Please!
.Intro
.Verse x6
.Chorusx2
.Verse x4
.Chorusx2
.End (Fuck You!)
Добавлено: 05.03.2012
Другие материалы по этой песне:
  • Аккорды и текст

Страница создана 05.03.2012
http://primanota.ru/nofx/civil-defense-chords.htm
Привет, Гость.
Предлагаем пройти революционный курс по гитаре.
Подарок от PrimaNota.Ru, забирай!