PrimaNota.ru - самый крупный в мире бесплатный архив песенных текстов, аккордов, табулатур и нот


Nofx - Buggly Eyes - аккорды и текст, видео

Регистрация Запомнить меня
Войти через:  Facebook Google Twitter Vk Yandex Mail.ru

Nofx - Buggly Eyes - аккорды и текст, видео

Печатать
Просмотров: 78
Уроки эстрадного вокала в Санкт-Петербурге
Buggly Eyes
Nofx
[---------------------------------------------------------------------------
 ---------------------------------------------------------------------------
 ---------------------------------------------------------------------------
 -------------------------------------------------------5-----5-------------
 -10--10-10---9--9-9---7--7-7-7-7-7---3--3-3---5--5-5---3--5--3-------------
 -8---8--8----7--7-7---5--5-5-5-5-5---1--1-1---3--3-3------3----------------]
 repeat two times
 [---------------------------------------------------------------------------
 ---------------------------------------------------------------------------
 ---------------------------------------------------------------------------
 ----------------------9--9-9-9-9-9-----------------------------------------
 -10--10-10-10-10-10---7--7-7-7-7-7---7--7-7-7-7-7---3--3-3---5--5-5--------
 -8---8--8--8--8--8-------------------5--5-5-5-5-5---1--1-1---3--3-3--------]
 repeat first part once
  -
  NOTES: These are all just regular chords, but i tabbed em out for slow people
 (this song is also in the live album)
  verse
 C     Em  A           F     G     C
 -----0-----0--0--0--0--0--1--1--3--3--0-------------------------------- } x2
 -----1-----0--2--2--2--2--1--1--3--3--1--------------------------------
 -----0-----1--2--2--2--2--2--2--4--4--0--------------------------------
 -----2-----2--2--2--2--2--3--3--5--5--2--------------------------------
 --3-----2-----0--0--0--0--3--3--5--5--3-----0--2--3--------------------
 --------------------------1--1--3--3-----3-----------------------------
 did ya ever goto sleep with bo derek, and wake up with bo didley?
 did ya ever goto sleep with bo derek, and wake up with bo didley?
  chorus
 C                 Em                A                 F     G
 --0-----0--0--0----0-----0--0--0----0-----0--0--0----1--1--3--3-----
 --1-----1--1--1----0-----0--0--0----2-----2--2--2----1--1--3--3-----
 --0-----0--0--0----1-----1--1--1----2-----2--2--2----2--2--4--4-----
 --2-----2--2--2----2-----2--2--2----2-----2--2--2----3--3--5--5-----
 --3-----3--3--3----2-----2--2--2----0-----0--0--0----3--3--5--5-----
 -----------------------------------------------------1--1--3--3-----
 got so loaded you thought that shes the most beautiful girl you ever did see
 C     Em  A           F     G     C
 -----0-----0--0--0--0--0--1--1--3--3--0-------------------------------
 -----1-----0--2--2--2--2--1--1--3--3--1-------------------------------
 -----0-----1--2--2--2--2--2--2--4--4--0-------------------------------
 -----2-----2--2--2--2--2--3--3--5--5--2-------------------------------
 --3-----2-----0--0--0--0--3--3--5--5--3-----0--2--3-------------------
 --------------------------1--1--3--3-----3----------------------------
 well did ya ever goto sleep with bo derek, and wake up with bo didley?
 trumpet solo with the verse and chorus x1
  chorus
 C                 Em                A                 F     G
 --0-----0--0--0----0-----0--0--0----0-----0--0--0----1--1--3--3-----
 --1-----1--1--1----0-----0--0--0----2-----2--2--2----1--1--3--3-----
 --0-----0--0--0----1-----1--1--1----2-----2--2--2----2--2--4--4-----
 --2-----2--2--2----2-----2--2--2----2-----2--2--2----3--3--5--5-----
 --3-----3--3--3----2-----2--2--2----0-----0--0--0----3--3--5--5-----
 -----------------------------------------------------1--1--3--3-----
 woke up in the mornin to your surprise a couple melons in tube socks with buggley
 eyes
 C     Em  A           F     G     C
 -----0-----0--0--0--0--0--1--1--3--3--0-------------------------------
 -----1-----0--2--2--2--2--1--1--3--3--1-------------------------------
 -----0-----1--2--2--2--2--2--2--4--4--0-------------------------------
 -----2-----2--2--2--2--2--3--3--5--5--2-------------------------------
 --3-----2-----0--0--0--0--3--3--5--5--3-----0--2--3-------------------
 --------------------------1--1--3--3-----3----------------------------
 well did ya ever goto sleep with bo derek, and wake up with bo didley?
  thats it, if you got the album youll see how everything fits
Добавлено: 11.12.2013
Другие материалы по этой песне:
  • Аккорды и текст

Страница создана 04.08.2013
http://primanota.ru/nofx/buggly-eyes-chords.htm
Привет, Гость.
Предлагаем пройти революционный курс по гитаре.
Подарок от PrimaNota.Ru, забирай!