PrimaNota.ru - самый крупный в мире бесплатный архив песенных текстов, аккордов, табулатур и нот


Nofx - Blasphemy The Victimless Crime - таба, бас-таба, видео

Регистрация Запомнить меня
Войти через:  Facebook Google Twitter Vk Yandex Mail.ru

Nofx - Blasphemy The Victimless Crime - таба, бас-таба, видео

Печатать
Просмотров: 162
Artist : Nofx
Song: Blasphemy (The Victimless Crime)
Album: COaster

intro
e|-------------------------------------|
b|-------------------------------------|
g|-------------------------------------|
d|-------------5-3---------------------|
a|--5-555-5-55------33333-3-5-3-1------|
e|--------------------------------3----|


verse and chorus
e|-------------------------------------|
b|-------------------------------------|
g|------3-----5------------------------|
d|---5--3--3--5------------------------|
a|---5--1--3--3------------------------|
e|---3-----1---------------------------|


solo ?

bridge
Horus similar to Mithra, Attis analogous to Krishna
e|--------------|-----------------------|
b|--------------|-----------------------|
g|--8-----5-----|---8-----5--7----------|
d|--8--8--5--5--|---8--8--5--7----------|
a|--6--8--3--5--|---6--8--3--5----------|
e|-----6-----3--|------6----------------|



I’ll throw a pie in the face of piety
I’ll torch a torah right off a bridge
I am a reverend of irreverence
I’m a shill for any sacrilege
I understand that faith in a deity
Helps the masses who are having hard times
But blasphemy like prostitution
Are clearly victimless crimes

Blasphemy, blasphe-you, Jesus Christ the blackest Jew
Blasphe-you, blasphemy, poisonous pedagogy

I’m an unbeliever, I’m a heretic
I’m gonna projectile puke off a pew
I’m a trouble making immature imp
I’m gonna turn your other cheek for you
I understand we all need something to believe in
I believe I’ll never be given wings and
I’m sorry if it’s up there cuz I didn’t think
A song was gonna hurt its feelings

Blasphemy, speaking deadpan
Apparently this god has got a master plan
Now they call foul, pure heresy
But ya gotta wonder, does he have a plan B?

Horus similar to Mithra, Attis analogous to Krishna
Jesus, different name same story
All based on ancient Egyptian allegory

My position hasn’t been occulted
It can never be more overstated
My intelligence has been insulted
So my tongue lashes out in defense
Anything that is your holy or sacred
I’m gonna desecrate and use in jest
But you’ll never hear a crack about Mohammed
Cuz I don’t wanna get shot in the chest

Blasphemy, isn’t this fun
Rob a rabbi, bugger a nun
Blasphemy, want some more?
Mother Mary, the virgin whore



*****************
bongloard.de.vu
Добавлено: 14.06.2012
Другие материалы по этой песне:

Страница создана 14.03.2012
http://primanota.ru/nofx/blasphemy-the-victimless-crime-chords.htm
Привет, Гость.
Предлагаем пройти революционный курс по гитаре.
Подарок от PrimaNota.Ru, забирай!