PrimaNota.ru - самый крупный в мире бесплатный архив песенных текстов, аккордов, табулатур и нот


Nofx - 45 Or 46 Songs That Werent Good Enough To Go On Our Other Records (album) - бас-таба, видео

Регистрация Запомнить меня
Войти через:  Facebook Google Twitter Vk Yandex Mail.ru

Nofx - 45 Or 46 Songs That Werent Good Enough To Go On Our Other Records (album) - бас-таба, видео

Печатать
Просмотров: 122
This is my Third NoFX album i think and i hope you guys will enjoy it..It is for the
Bass guitar which i do not like to play as often as the E-Guitar..I hope all you NoFX
fans out there that play the bass and are interested in this album will rate this tab
and enjoy it!! Please rate and comment on this tab!! PEACE!! By the Way-...I didnt tab
out all 45 or 46 songs cause it takes too long :D So i tabbed out the best 21  songs!! Enjoy everyone!!

Artist:NoFX
Album:45 or 46 Songs that Weren't Good Enough to Go on Our Other Records
Year:2002
Genre:Punk Rock
Tabbed By:NoFX_2525


1)Pimps and Hookers
2)All of Me
3)We Threw Gasoline on the Fire and Now We Have Stumps for Arms and No Eyebrows
4)Drugs are Good
5)Lower
6)Electricity
7)Lazy
8)The Plan
9)Timmy The Turtle
10)Punk Song
11)See Her Pee
12)Zyclone B Bathouse
13)Last Caress
15)Bath of Least Resistance
16)We Ain't Shit
17)San Fransisco Fat
18)Vincent
19)Pump Up the Valuum
20)Pods and Gods
21)Thalidomide Child

-----------------------------------------------------------------------------|
-----------------------------------------------------------------------------|

1)Pimps and Hookers:


# intro #
G--|------|4X|------|-------------|4X|--------------||
D--|----------------|-------------------------------||
A--|----------------|--------------------------3--3-||
E--|3-3-3333-33-3333|3-3-3333--3--3--1-1-1111-------||
:
# verse # *=play 5-8X #=play 3-4X
G--|------------|2X|---------------|-----------------------------------------|
D--|-------------#-----------------|-*-------*-----------------------*------*|
A--|-*-------#--3----*-------#--3-3|3-------5--------*-------#--3-3-3-------5|
E--|3-------1-------3-------1------|----------------3-------1----------------|
:                                                               h=hammer-on
# chorus # #=play 4X                                            #into-verse2#
G------------------------------------#-----------#---#----------|>h-h-h-h----|
D-----------------//5-5-5-5-5-5-5-5-5----#---#--5---5----#---#--|>353535353--|
A---------------------------------------1---3-----------1---3---|>-----------|
E---3--\------------------------------------------------------|>-------------|
:
# verse2 # *=play 5-8X #=play 3-4-------------------------------------|X +=play 8X with pauses h=hammer-on>
G------------------------------------------------------------h-h-h----|
D----------------#-------------------------------#-----------3535353--|
A----*-------#--3----*-------#--3-3--*-------#--3---------------------|
E---3-------1-------3-------1-------3-------1-------3-\---------------|
>verse2
>---------------------------------------------------|
>----*-------*-----------------------*-------*------|
>---3-------5--------+--------------3-------5-------|
>-------------------3-------------------------------|
:
# chorus2 # #=play 4X
G---------12-1210101210--------------#-----------#--------------------->-------|
D----------------------10-1012-10-8-5----#---#--5--------#---#--------->-------|
A---------------------------------------1---3--------#--1---3---------->-------|
E---3--\------------------------------------------3-----------3------>-3-------|
:
Then play last part of intro X2.
:
# outro-verse # *=play 6X #=play 3X +=play 12X                      >
G-----------#-#-#-#--------------------------*---*-------*-------*-->
D----*---*--5-810-8--*---*---------------*--3---5----*--8----*--8--->
A---1---3-----------6---8----*---*---*--6-----------6-------6------->
E---------------------------6---6---3------------------------------->
>outro-verse
>------------*-----------*--------------------------------|
>--------*--3--------*--8----*---*---+---+---+------------|
>----*--6--------*--6-------6---8--10--10--10---8-810-----|
>---3-----------3-----------------------------------------|
:
-----------------------------------------------------------------------------|
-----------------------------------------------------------------------------|

2)All of Me:

# intro #AX8     It really goes like this...          |=rhythm points
G-----------------------|-------------------------|---------------|
D---------------------------0---0-2-2-2-2-2-2-2-2-2-3-2-0-2-0-----|
A---3-3-3-3-3-3-3-3-3-3-3-0---3-------------------------------3---|
E-----------------------------------------------------------------|
# intro #BX8     ...but I like to play it like this! Choose your own.
G-----------------------|-------------------------|---------------|
D-----------------------------------------------------------------|
A---3-3-3-3-3-3-3-3-3-3-3-0-5-3-5/7-7-7-7-7-7-7-7-7-8-7-5-7-5-3---|
E-----------------------------------------------------------------|
:
# verse #    *=play 16X   #=play 8X                                 >
G------------------------------------------------------------------->
D----*-----------------------*-------*-------*-------*-------#------>
A---3--------*-------*------5-------7-------0-------5-------5----#-->
E-----------0-------5-------------------------------------------3--->
>verseA
>-----------------------------------------------------------|
>----*-----------------------*-------*-------#---#---#------|
>---3--------*-------*------5-------8-------7---0---5----#--|
>-----------0-------5-----------------------------------3---|
:
Then play introX2.
:
# verse2 #    *=play 16X   #=play 8X  !notes without signs 2X!      >
G--------------------#---------------------------------------------->
D----*--------------7---575--*-------*-------*-------*-------#------>
A---3--------*-------------75-------7-------0-------5-------5----#-->
E-----------0---------------------------------------------------3--->
>verse2
>-----------------------------------------------------------|
>----*-----------------------*-------*-------#---#---#------|
>---3--------*-------*------5-------8-------7---0---5----#--|
>-----------0-------5-----------------------------------3---|

-----------------------------------------------------------------------------|
-----------------------------------------------------------------------------|

3)We Threw Gasoline on the Fire and Now We Have Stumps for Arms and No Eyebrows:

# intro # X5  !play all notes 12X!  (last time without last note)
G---9-------7-------7-------9-------|
D---7-------7-------7-------7-------|
A-----------------------------------|
E-----------------------------------|
:
# intro-part2 # X4  (I thought this was guitar first!)
G---9-9---9-9-99-999---|
D---7-7---7-7-77-777---|
A----------------------|
E----------------------|
:
# verse #     *=play 12X    #=play 6X                                       >
G------------------------------------------------------------------------#-->
D--------------------101010--*---------------------------------------#-10--->
A--121212101010-8-8-8------10---------------------------------8-8-810------->
E-------------------------------------------8-8-8-6-6-6-5-5-5--------------->
>verse                                                                      >
>--------------------------------------------------------------------------->
>--------------------101010121210-9-9----#---------------------------#---#-->
>--121212101010-8-8-8----------------1210---------------------8-8-810---8--->
>-------------------------------------------8-8-8-6-6-6-5-5-5--------------->
>verse
>-----12-------|
>---12--12--#--|
>-10------10---|
>--------------|
:
# chorus #      *=play 6X                                       >
G----------------------------------------------------*-------*-->
D----*-------*---------------*-------*-------*------3-------7--->
A---3-------1--------*------3-------3-------2------------------->
E-------------------1------------------------------------------->
>chorus
>-------------------------------------------------|-1212-121212-1212---|
>----*-------*-------*---14121012----*-------*----|-1010-101010-1010---|
>---8------10------12---------------8------10-----|--------------------|
>-------------------------------------------------|-------4X-----------|
:
# verse2 #     *=play 12X    #=play 6X                                      >
G------------------------------------------------------------------------#-->
D--------------------101010--*---------------------------------------#-10--->
A--121212101010-8-8-8------10---------------------------------8-8-810------->
E-------------------------------------------8-8-8-6-6-6-5-5-5--------------->
>verse2                                                                     >
>--------------------------------------------------------------------------->
>---------9-9-9101010101010121210-9-9----#---------------------------#---#-->
>--121212----------------------------1210---------------------8-8-810---8--->
>-------------------------------------------8-8-8-6-6-6-5-5-5--------------->
>verse
>------------|
>---#--------|
>-10--10-----|
>------------|
:
>>>>>>>>to next page...    (first bass tab, which goes to next page!!!)
:
:
:
:
:
:
:
WE THREW GASOLINE...                                                      2/2
:
# chorus2 #     *=play 6X                                       >
G----------------------------------------------------*-------*-->
D----*-------*---------------*-------*-------*------3-------7--->
A---3-------1--------*------3-------3-------2------------------->
E-------------------1------------------------------------------->
>chorus2
>-----------------------------------------------|
>----*-------*------*-10101214121012-*----------|
>---8------10------12---------------8------10---|
>-----------------------------------------------|
:
# bridge #A&B X2   !second time first part only once!  !end with first note!             
                    >
G-|----------------3X---------------|-----------------------------------|
D-|---------------------------------|-----------------------------------|
A-|-3-3----101010-------------------|-3-3---------------------------2---|
E-|---------------0-1-1-----1-1-1-3-|---------1-1-1-1-3-3-----3-3-3-----|
:
# chorus3 #     *=play 6X   #=play 6X                           >
G------------------------------------------------------------*-->
D-----------------------------------------------------------7--->
A---------palm-muted-guitar----palm-muted-guitar---------------->
E--------------------------------------------------------------->
>chorus3
>-------------------------------------------------|-1212-121212-1212---|
>----*-------*-------*-------#---#---*-------*----|-1010-101010-1010---|
>---8------10------12------12--10---8------10-----|--------------------|
>-------------------------------------------------|-------4X-----------|

4)Drugs Are Good:

# intro #                   *=play 56X
G-----------------------------------------------------------------|
D----*------------------------------------------------------------|
A--12------------------------------------------------------12-----|
E-----------------------------------------------------------------|
:
# intro2 # X2   *=play 16X   r=let ring                                      >
G---------------------------------------------------------------------------->
D------------------------------3-3-3-3------------------------910-9--9-10-9-->
A-----------3-3-3-3----3-3-3----------------------3-3-3-3---10r----10r-----10>
E---5-5-5-3--------030-------3--------030-5-5-5-3--------030----------------->
>intro2
>--------------------------------------------------------------------|
>----------------------------------3-3-3-3---------------------------|
>---------------3-3-3-3----3-3-3----------------------3-3-3-3-----*--|
>---030-5-5-5-3--------030-------3--------030-5-5-5-3--------030-3---|
:
# verse #     *=play 8X   ()=only first time                     >
G---------------------------------------------------------------->
D------------*-------*-----------------------------------*------->
A----*------3-------3--------*---------------3-3-3-3---10-------->
E---5-----------------------1----030-5-5-5-3--------030------030->
>verse
G-----------------------------------------------------------|
D------------*-------*--------------------------------------|
A----*------3-------3--------*---------------3-3-3-3-----*--|
E---5-----------------------1----030-5-5-5-3--------030-3---|
:
# chorus #      *=play 8X
G----------------------------------------------------------------------------|
D--------------------------------------------------*-----------------*------*|
A--------------*------3-3-3------*------1-1-1-----3-------1-1-1-----3------3-|
E---1-1-1-333-5-------------333-1-------------111---------------111----------|
:
Then play intro2, verse and chorus.
:
# outro #
G----------------------------------------------------------------|
D------------------------------3-3-3-3---------------------------|
A-----------3-3-3-3----3-3-3----------------------3-3-3-3---10---|
E---5-5-5-3--------030-------3--------030-5-5-5-3--------030-----|
:
----------------------------------------------------------------------------|
----------------------------------------------------------------------------|

5)Lower:

# intro #                                                           >
G------------------------------------------------------------------->
D--1010--101010--101515--151414---01010--101010--101010--101010--10->
A---0-0---0-0-0---0-0-0---0-0-0---0-8-8---8-8-8---8-8-8---8-8-8---8->
E------------------------------------------------------------------->
>intro
>---------------------------------------------------------------------|
>--1010--101010--101515--151414-0-01010--10--10--101010--10--10--10---|
>---0-0---0-0-0---0-0-0---0-0-0-0-0-8-8---8---8---8-8-8---8---8---8---|
>---------------------------------------------------------------------|
:
# main #   *=play 6X   #=play 3-4X
G------------#---#-----------------------#---#---#--------------|
D----*-----15--14----*-------*-------#-17--15--14----*-------#--|
A---0---------------8-------8-------0---------------8-------8---|
E---------------------------------------------------------------|
:
:            !play E with pick between your thumb and index finger, and G by
# verse # X2  twiddling the string with your middle finger and ring finger!
G--17------19--17--14----------17--16------17--16---------------|
D----------------------------------------------------*-------*--| *=play 6X
A---------------------------------------------------0-----/12---|
E--17------17--17--13----------13--15------15--15---------------|
:
# 1stchorus # X2  !play all notes 6X!
G---------------------------------------------------------------|
D---------------------------3---------------5-------3-------3---|
A---3---------------0---------------3---------------------------|
E-----------3---------------------------------------------------|
:
Then play main, verseX2 and 1stchorusX2.
:
# 2ndchorus #   *=play 6X   #=play 3X
G-------------------------------------------------------------------------|
D----*-----*-----------*-----*-----------------*-----#--#--#--#--*-----*--|
A---5-----5------*----3-----5------*-----*----3-----5--3--2--1--0-----0---|
E---------------1-----------------1-----3---------------------------------|
:
# bridge #   !play all notes 12X!
G---------------------------------------------------------------|
D---------------------------------------------------------------|
A-----------0-------5-------0---------------0-------4-----------|
E---1-------------------------------1-----------------------4---|

----------------------------------------------------------------------------|
----------------------------------------------------------------------------|

6)Electricity:

# intro # X3.5               # line # X2   !play all notes 12X with pauses!
G---------------|            G-------------------------------|
D---5-----------|            D-------------------------------|
A---------------|            A-------------------3-----------|
E-----------3---|            E---5-------1---------------3---|
:
# verse # X2   *=play 11-12X
G-------------------------------|
D--------------------*----------|
A----*-------*------3--------*--|
E---5------31------3--------3---|
:
# bridge #
G-|--------------------------------|--------------------------------|-|
D-|-7-7-7-7-5-5-5-5----------------|5-5-5-5-3-3-3-3-----------------|-|
A-|-----------------7-6-5----------|----------------5-4-3-----------|-|
E-|-----------2X----------8-5-5-5-5|------------2X--------5-3-3-3-3-|-|
:
Then play lineX2, verseX2 and bridge.
:
# outro #B X3.5  *=play 12X with pauses  (let ring)
G-------|
D-------|
A----*--|
E---5---|

----------------------------------------------------------------------------|
----------------------------------------------------------------------------|

7)Lazy:

# intro # 0:11   *=play 5X   #=play 10X
G-------------------------------|
D--------------------#-------#--|
A----*---*---*---*--0-------0---|
E---0-/12---0-/12---------------|
:
# chorus #             ||           |=single note           ||||
G---------------------------------------------------------------1-4---|
D----------------------12-4-------------------0-2-4---------2222------|
A---------0-2-0-----4-------2-0-----0-2-0-2-3-------------2-----------|
E---0--04-------4-2-------------4-2-----------------0--04-------------|
:
# chorus-part2 #       ||           |=single note
G---------------------------------------------------------------------|
D----------------------12-4-------------------0-2-4-------------------|
A---------0-2-0-----4-------2-0-----0-2-0-2-3-------------2-------2---|
E---0--04-------4-2-------------4-2-----------------0--04----0004-----|
:
# verse # X2
G------------------------------------------------------------------------|
D-------------------------------------------2-------2--------2-------2---|
A---------2-------2--------2-------2--0--04----0004----0--03----0003-----|
E---0--04----0004----0--04----0004---------------------------------------|
:
Then play chorusX1.75.
:
# bridge #   *=play 14X   #=play 7X      (Where has my ambition gone...)
G---------------------------------------------------------------------------|
D------------*-------*-------*-------*-----------------------#---#----------|
A----*------2-------2-------4-------4--------*-------*------2---0----#---#--|
E---0---------------------------------------2-------2---------------4---2---|
:
Then play verseX2 and chorusX3.
:
# chorus3/outro #      ||           |=single note
G-------------------------------------------------------|
D----------------------12-4-----------------------------|
A---------0-2-0-----4-------2-0-----0-------3-----------|
E---0--04-------4-2-------------4-2-----------------0---|
:

-----------------------------------------------------------------------------|
-----------------------------------------------------------------------------|

8)The Plan

# intro # *=play 8X
G-----------------|-------6X-------|---|
D-----------------|-*--------------|---|
A---3/83333-2-3-2|5-----3333-2-3-2|----|
E-----------------|----------------|---|
:
# chorus #      *=play 6X
G-------------------------------------|
D----*-------*-------*-------*--------|
A---5----*--3----*--5----*--3---------|
E-------0-------3-------0-------3-2---|
:
# verse #   !play all notes 6X!   (Calling libertarian...)
G-------------------------------------------------------------------|
D---------------------------------------------------7---5---4---4---|
A-----------3-----------3-------2---3-------5---7-------------------|
E---0---0-------3---0-------3-----------3---------------------------|
:
Then play chorus.
:
# verse2 #  *=play 6X
G-----------------------------------------------------------------45---|
D------------*-----------*-------*---*-------*---*---*---*-----457-----|
A----*---*--3----*---*--3----*--2---3----*--5---7---0---0---557--------|
E---0---0-------3---0-------3-----------3------------------------------|
:
# verse3 # X2   *=play 6X   %=pause   (The blueprints of a better world...)
G----*---*---*-----------*----------------------------------------|
D---5---4---2----*------4----*---------------------*--------------|
A---------------3----*------3-----%55--*---*---*--3----*---*------|
E-------------------3----------%00----3---2---0-------3---2---0---|
:
# chorus2/bridge # 2:11 *=play 8X   %=pause
G----*|------2X-------|---------------------------------|
D---5-|--*-------*----|--%%%2------------*---*---*---*--|
A-----|-5----*--3----*|-3----%%%3----%%%0---0---5---5---|
E-----|-----0-------3-|----------%%%3-------------------|
:
# verse4 # X2 *=play 6X   %=pause                                   >
G----*---*---*-----------*-------------------------------------*---->
D---5---4---2----*------4----*---------------------*----------2----*>
A---------------3----*------3-----%55--*---*---*--3----*---*------5->
E-------------------3----------%00----3---2---0-------3---2--------->
>verse4
>-----------------------|
>----*---*--------------|
>---3---5---------%55---|
>-----------3--%00------|
:
-----------------------------------------------------------------------------|
-----------------------------------------------------------------------------|
9)Timmy The Turtle

INTRO   X=play many times.
G----------------+
D----------------+
A----------------+
E--0X------------+
:
VERSE at 00.31 /=slide up
G--------------------+
D--------------------+
A--------------------+
E--0---0---0---0-/12-+
:
CHORUS
G------------------+
D------------------+
A---------------0--+
E-3-3-3-3-3-3-33---+
then play INTRO,VERSE,and CHORUS
:
OUTRO X=play many times /=slide up
G-----------------------------------------------------------------------------|
D-----------------------------------------------------------------------------|
A---------/7------------------------------------------------------------------|
E--0X-------------------------------------------------------------------------|
------------------------------------------------------------------------------|
------------------------------------------------------------------------------|
10)Punk Song

# intro #
G----------------------------------------------------------------------|
D---------------------------------------6464---------------------------|
A-----------66666666--------77777777--------66666666--------77777777---|
E---44444444--------77777777--------4444------------77777777-----------|
:
# verse #           *=play 6X
G-|------------4X---------------|----------------------------------------------|
D-|----------*---------------*--|----------------------------*-------*--*------|
A-|--*------6--------*------7---|----*------66677766-*------7-------6--6-------|
E-|-4---------------7-----------|---4---------------7----------------------4---|

----------------------------------------------------------------------------|
----------------------------------------------------------------------------|
11)See Her Pee

# intro # X2  !play all notes 16X palm-muted!
G--------------------*-------*--|
D------------*------3-------0---|
A----*------1-------------------|
E---3---------------------------|
:
# verse #   *=play 10-16X
G----*-------------------------------*---------------*-------------------------|
D---5---------358853-*-----------5353-------------531--------------------------|
A-------------------1-----------1-----------------------------------1-1-1-1111-|
E------------------------------------------------------------------------------|

----------------------------------------------------------------------------|
----------------------------------------------------------------------------|
12)Zyclone B Bathouse

# start #
G-------|
D-------|
A-------|
E--13\|
:
# intro # %=pause
G-|-------------|3X|---------------|---------------------------%%%%%%|
D-|--------------------------------|---------------------------%%%%%%|
A-|101010101010101010-----810-8---8|101010101010101010-----8-8-%%%%%%|
E-|-------------------810------10--|-------------------810-----%%%%%%|
:
# verse # *=play 12X  #=play 6X
G--|-------------|2X|--------------|-----------------------------------------|
D--|-*---------------*-------------|-*-------*-----------#------------------*|
A--|7--------*------5--------#---#-|3-------5--------#--5----*-------*------3|
E--|--------5---------------3---2--|----------------3-------0-------5--------|
:
Then play intro (!1st part only once!).
:
# verse2 # *=play 12X  #=play 6X                                    >
G------------------------------------------------------------#---#-->
D----*---------------*---------------*---------------*------5---4--->
A---7--------*------5--------#---#--7--------*------5--------------->
E-----------5---------------3---2-----------5----------------------->
>verse2
>---------------------------------------------------|
>----*-------*-----------#-------------------*------|
>---3-------5--------#--5----*-------*------3-------|
>-------------------3-------0-------5---------------|
:
# outro # %=pause                                                   >
G----1012----------------101210--1012------------------------------->
D-/12----------------1012------12----------------------------------->
A------------------------------------1010101010101010-----810-8---8->
E-----------------------------------------------------810------10--->
>outro
>-------------------------------------------------------------%%%%%%|
>-------------------------------------------------------------%%%%%%|
>--101010101010101010-----810-8---8101010101010101010-----8-8-%%%%%%|
>---------------------810------10---------------------810-----%%%%%%|

-----------------------------------------------------------------------------|
-----------------------------------------------------------------------------|
13)Last Caress

# intro #
G-----------------------------------------|
D-----------3--5----------3--5--3-----5---|
A---3-------------3-----------------------|
E-----------------------------------------|
:
# verse # X4  *=play 11X
G------------------|
D----*------3--5---|
A---3--------------|
E------------------|
:
# ska # X2.5           |
G---------------------------------------------|
D---3--3-7--7-5--5-0--010-10-9--9-7--7-5--5---|
A---------------------------------------------|
E---------------------------------------------|
:
# verse2 # X2
G---------------------------------|
D-----------------3-3-3-5-5-5-5---|   > Then play verseX2.
A---3-3-3-3-3-3-3-----------------|
E---------------------------------|
:
# ska2 #
G----------------------------------------------------------7--7---|
D---3--3-7--7-5--5-0--010-10-9--9-7--7-5--5-3--3-7--7-5--5--------|
A-----------------------------------------------------------------|
E-----------------------------------------------------------------|
:
Then play verseX4.
:
# ska3 #
G-|----------------------------------------|--------------|
D-|-3--3-7--7-5--5-0--010-10-9--9-7--7-5--5|3--3-7--7-5---|
A-|----------------------------------------|--------------|
E-|------------------2X--------------------|--------------|

-----------------------------------------------------------------------------|
-----------------------------------------------------------------------------|
15)Bath of Least Resistance

# main #                                                                >
G------------------------------------------------------------------------|
D------------------------------------------------------------------------|
A-----------------------------------------------------------0-3-2-0------|
E---3/81---1-1-3---3-3-0-0-0/5---5-5-5-1---1-1-3---3-3-0-3---------3-2---|
>main
>-------------------------------------------------------------------|
>-------------------------------------------------------------------|
>-------------------------------------------------------------------|
>---1---1-1-3---3-3-0-0-0/5---5-5-5-1---1-1-3---3-0--/5-5---5-5-5-5-|
:
# main2 # X2
G-------------------------------------------------------------------|
D-----------------------710-9-7-------------------------------------|
A---8---8-810--1010-710--------10-9-8---8-810--10-7-/1212--12121212-|
E-------------------------------------------------------------------|
:
# verse # !play all notes 3X!
G-----------------------------------------------------------|
D---------------3---3-------5---5---3-----------3---3---5---|
A---8-------------------3-----------------------------------|
E-------3---5---------------------------3---5---------------|
:
# chorus # !play all notes 8X!
G-----------------------------------------------------------|
D---------------------------3-------------------------------|
A---3-------1-------0---------------3-------1-------0-------|
E-----------------------------------------------------------|
:
# end-chorus # (So can you|please...) !play all notes 3X! *=play once
G-------------------------------------------------------------------|
D---3---5---------------2---3-------3-------------------2---3----*--|
A-----------3---3---0-----------3-----------3---3---0-----------3---|
E---------------------------------------3---------------------------|
:
# main3 #
G---------------------------------------------------------------------------|
D-------------------------------------------------5---5-2-//7-7---7-7-7-7---|
A-----------------------------0-3-2-0---------------------------------------|
E---1//\1---1-1-3---3-3-0-3---------3-2-1---1-1-----------------------------|
:
Then play verse and chorus.
:
# bridge # ('Cause I'm a|psycho...) *=play 8X                       >
G----*---------------*---------------*------------------------------>
D---3---------------3-------------/15--------------1515151515141214->
A------------------------------------------------------------------->
E------------------------------------------------------------------->
>bridge                                                             >
>----*-------------------------------*------------------------------>
>--10--------------1010101010------10--------------1010101010------->
>----------------------------10-810--------------------------10-7-8->
>------------------------------------------------------------------->
>bridge
>-------------------------------------------------------------------|
>----*--------------3-3-3-3-3-5-3-3--*--------------3-3-3-3-3-5-3-3-|
>---5-------------------------------5-------------------------------|
>-------------------------------------------------------------------|
:
>>>>>>>>to next page...
:
:
BATH OF LEAST RESISTANCE                                                  2/2
:
# end-bridge # (So can you|please...) !play all notes 3X! *=play once
G-------------------------------------------------------------------|
D---3-------------------------------3-------------------2---3----*--|
A-----------3---3---0-----------3-----------3---3---0-----------3---|
E-------3---------------0---1-----------3---------------------------|
:
# main4 #
G---------------------------------------------------------------------|
D-----------------------------710-9-7---------------------------------|
A---3/10\8---8-810--1010-710--------10-9-8---8-810--10-7-/12121212----|
E---------------------------------------------------------------------|

-----------------------------------------------------------------------------|
-----------------------------------------------------------------------------|
16)We Ain't Shit

# intro # 0:07  !play all notes 10X!
G-|---------------------2X-----------|------|
D-|----------------------------------|------|
A-|-3-----3-----0-----0--------------|--3---|
E-|-------------------------1-----3--|------|
:
# main #   !play all notes 5-6X!   %=pause
G-------------------------------------------------|
D-------------------------------------------------|
A---3-----------0----/8-----3-----------0----/8---|
E---------3----------------------%3---------------|
:
# verse # X4 !play all notes 6X!
G-------------------------|
D-------------------------|  > Then play main and verseX4.
A---3-----------5----/8---|
E---------3---------------|
:
# chorus # X2 !play all notes X6!
G-------------------------|
D-------------------------|
A---3-----------0----/8---|
E---------3---------------|
:
# bridge # X8 !play all notes 4-6X!  # bridge2 # 2:20
G-------------------------|          G-------------------------|
D-------------------------| end      D-------------------------|
A---3-----------1---------| with     A---3-----5-----7-----8---|
E---------3-----------1---| first    E-------------------------|

-------------------------------------------------------------------------------|
-------------------------------------------------------------------------------|
17)San Fransisco Fat

# into-verse # 00:17
G---------------|
D---------------|
A---5-5-3-2-----|
E-----------5-3-|
:
# verse # *=play 24X
G-------------------------------------------------------------------|
D-------------------------------------------------------------------|
A----*-------*-------*-------*-------*-------*-------*-------*------|
E---5-------1-------5-------1-------5-------1-------5-------3-------|
:
# verse-part2 # *=play 12X #=play 8X "=play 2X
G-------------------------------------------------------------------|
D----*------"-"-"--*-------#----"--*------"---"-"--*-------*--------|
A---3-------3-51012------12----10-8-------8-"-7-0-8-------8---------|
E-------------------------------------------8-----------------------|
:
# verse2 # *=play 24X  #=play 18X
G-----------------------------------|-------------------------------|
D-------------------------------------------------------------------|
A----*-------*-------*-------*-------*-------*-------*-------#----/-|
E---5-------1-------5-------1-------5-------1-------5-------3---/710|
:
Then play verse-part2.
:
# chorus # *=play 12X #=play 5-7X
G-------------------------------------------------------------------|
D----*-----------------------*-------*---------------#--#-----------|
A---3--------*-------*------7-------8--------*-----10--8-----*------|
E-----------3-------5-----------------------8---------------8-------|

-----------------------------------------------------------------------------|
-----------------------------------------------------------------------------|
18)Vincent

# intro #    !play all notes 10X!
G-------------------------------------------------|
D-------------------------------------------------|
A---5---------------------------------------------|
E-----------------0-------------3-------------5---|
:
# verse #
G--------------------------|
D--------------------------|
A---5-------5--5--5--5-5---|
E--------------------------|
:
# verse-part2 #A   *=play 12X   #=play 20X   (...blue and gray...)
G-------------------------------------------------------|
D----------------------------------------------------#--|
A----*-----------*-----------*-----------*----------5---|
E---0-----------0-----------3-----------5---------------|
:
Then play verse and verse-part2.
:
# chorus #    *=play 6X   #=play 12X
G-----------------------------------------------------------------------|
D--------------------*---*---#-----------------------#------------------|
A----#-------#------5---4---2--------#-------#------2--------#-------#--|
E---0-------3-----------------------0-------0---------------0-------3---|
:
Then play intro, verse (last note X2), verse-part2, verse (last note X2),
verse-part2 and chorus.
:
# chorus3 #A&B  |(For they could not love you...)   *=play 6X   #=play 12X   >
G---------------|------------------------------------------------------------>
D----#-------#-----------------------#-------#------------------------------->
A---5-------5--------#-------#------5-------2-----------------------5---3---2>
E-------------------0-------5-----------------------0-------3---------------->
>
>-----------------------|
>-----------------------|    > Then play intro (end with first note)
>----#-------#-------#--|
>---0-------3-------5---|

-----------------------------------------------------------------------------|
-----------------------------------------------------------------------------|
19)Pump Up the Valuum

# intro #
G--------------------------------------------------------------|
D--------------------------------------------------------------|
A-----------------------------------/7---------------------7---|
E---0----------------------------------------------------------|
:
# main # X2
G---------------------------------------|
D---22-202-20/5-5-5-5-----5-55----------|
A--------------------33-33--------------|
E-----------------------------0-000-0---|
:
# verse #   *=play 6X
G---------------------------------------------------------------|
D------------*---------------*---------------*------55-545-5-*--|
A---77-757-73---------------5-------77-757-73---------------5---|
E-------------------33-323-3------------------------------------|
:
# verse-part2 #
G---9--------------12-----------6---5------12-------9-----------6---0---|
D---9-------5------12-------7---6---5------12-------9-------7---6---5---|
A---7-------3------10-------5---4---3------10-------7-------5---4---3---|
E---0---------------------------4---3---------------0-----------4-------|
:
# chorus #   !play all notes 6X!
G-|-------------2X----------------|-----------------------------|
D-|-------------------------------|-----------------------------| > Then play
A-|-0-------0-----/12------10-----|-3---------------5-------5---|   intro.
E-|-------------------------------|---------3-------------------|
:
# main2 # X2
G---------------------------------------|
D---2-22022-0-55-5555-------------------|  > Then play verse, verse-part2
A--------------------3-333--------------|    and chorus.
E-------------------------3-2-00-0000---|
:
# outro #
G-------------------------------|
D-------------------------5-2---|
A--------------------3-333------|
E---0---------------------------|

-----------------------------------------------------------------------------|
-----------------------------------------------------------------------------|
20)Pods and Gods

# intro #   *=play 4X with pauses
G--------------------------------------------------------------------|
D----*---*---*---*---*---*---*---*---*---*---*---*---*---*---*-------|
A--77---7---7---7---7---7---7---7---6---5---4---3---2---2---2---22---|
E--------------------------------------------------------------------|
:
# verse #   *=play 16X   #=play 3-4X
G---------------------------------------------------------------------|
D----*---------------*---------------------------#--------------------|
A---2---------------2----------------#---#---#--2----#---#---#---#----|
E-----------------------------------4---2---0-------4---2---0---0-----|
:
# bridge #  *=play 4X with pause
G---------------------|
D----*---*---*--------|
A---2---2---2---222---|     > Then play verse.
E---------------------|
:
# pre-chorus #   *=play 3-4X
G------------------------------------------------------------*---*--|
D--------------------------------*-------------------*---*--2---2---|
A----*-------*---*---*-------*--2----*-------*---*--4---4-----------|
E---4-----2-0---2---4-----2-0-------4-----2-0---2-------------------|
:
# chorus #   *=play 3-4X
G--------------------*---*-------*-------------------*---*--|
D----*--------------2---4----*--2--1-*--------------2---4---| > Then play
A---2----*---*---*----------2-------2----*---*---*----------|   bridge and
E-------5---4---3-----------------------5---4---3-----------|   verse.
:
# verse2-part2 #   (The number one son...)   s=single note
G---------------------------------------------------------------------|
D----*---------------*---------------------------#--------------------|
A---2--------------/2----------------#---#---#--2----#---#---#---#----|
E---------------012-------------012/4---2---0-------3---2---0---0-----|
:               sss             sss
Then play pre-chorus and chorus.
:
# outro #   *=play 4X with pauses
G--------------------------------------|
D----*---*---*---*---*--to-the-end-----|
A---2---2---2---2---2--->>>>>>>>>>>>---|
E--------------------------------------|

-----------------------------------------------------------------------------|
-----------------------------------------------------------------------------|
21)Thalidomide Child

# intro #                      # verse # X2
G-------------------|          G-----------------------------|
D---7---------------|          D-------------5---------------|
A-----------2---3---|          A---0-0-2-3-3---2-2-3-3-3-3---|
E-------------------|          E-----------------------------|
:
# chorus # X4
G---------------|
D---------3-2---|   > Then play verseX2, chorusX4, verseX2 and chorusX4.
A---0-0-0-------|
E---------------|
:
# bridge #  *=play 3-5X   #=play 20X                                        >
G-|-------------------------------------------------------------------|----->
D-|-----------------------2---2-2-2-------------------------5---5-5-5-|--#-->
A-|-0-0-0-0-2-2-2-2-3-3-3-----------0-0-0-0-3-3-3-3-2-2-2-2-----------|-0--->
E-|---------------------------4X--------------------------------------|----->
>bridge                                                                 >
>-|---------------------------------------------------------------|----->
>-|-----------------2-2-2-3-3-3-2-2-----------------------5---5-5-|----->
>-|-0-0-0-0-0-0-0-0-----------------2-2-2-2-2-2-2-2-3-------------|-0--->
>-|------------------------4X-------------------------------------|----->
>bridge
>-|------3X-----|---------|
>-|-----------5-|---------|
>-|-0-0-2-3-3---|-2---3---|
>-|-------------|---------|


-----------------------------------------------------------------------------|
-----------------------------------------------------------------------------|
PEACE OUT GUYS...I HOPE YOU LIKED THE TAB..TOOK ME LIKE 4 HOURS TO WRITE OUT SO PLEASE 
AND COMMENT!! HOPEFULLY 5 STARS!! YOUR CHOICE THOUGH.PEACE OUT GUYS.
-----------------------------------------------------------------------------|
-----------------------------------------------------------------------------|

Hope you liked it..Peace out

NoFX_2525
Добавлено: 11.06.2012
Другие материалы по этой песне:
  • Аккорды и текст

Страница создана 11.06.2012
http://primanota.ru/nofx/45-or-46-songs-that-werent-good-enough-to-go-on-our-other-records-album-chords.htm
Привет, Гость.
Предлагаем пройти революционный курс по гитаре.
Подарок от PrimaNota.Ru, забирай!