PrimaNota.ru - самый крупный в мире бесплатный архив песенных текстов, аккордов, табулатур и нот


Nodes Of Ranvier - Do You Wanna Dance - текст песни, таба, видео

Регистрация Запомнить меня
Войти через:  Facebook Google Twitter Vk Yandex Mail.ru

Nodes Of Ranvier - Do You Wanna Dance - текст песни, таба, видео

Печатать
Просмотров: 23
PH = Pinched Harmonic 
* = Natural harmonic

    e|-------15-------15-------15------------|
    B|-12h13----12h13----12h13----12h13------|
GTR G|---------------------------------------|
 1  D|---------------------------------------| x4
    A|---------------------------------------|
    D|----------------------------------0----|

    e|------------------------------------------------------------------------------|
    B|-------------------------------------------------------------------10---------|
GTR G|---------9--9--9--9----------10-----9----------9--9--9--9-------------10p9----|
1+2 D|---------10-10-10-10---------10-----10---------10-10-10-10-----------------12-| x2
    A|-0-0-0-0-8--8--8--8--0-0-0-0-8--0-0-8--0-0-0-0-8--8--8--8--0-0-0-0------------|
    D|-0-0-0-0-------------0-0-0-0----0-0----0-0-0-0-------------0-0-0-0------------|
       P M P M             P M P M    P M    P M P M             P M P M

    e|--------------------------------------------------------------------------|
    B|-----------------------------------11---------------------------------11--|
GTR G|-----------------------------------14---------------------------------14--|
1+2 D|--------------------------------------------------------------------------|
    A|-0-0-0-0-0-0-0-0-0-0-0-0-0-0-0-0-0----0-0-0-0-0-0--0-0-0-0-0-0-0-0-0------|
    D|-0-0-0-0-0-0-0-0-0-0-0-0-0-0-0-0-0----0-0-0-0-0-0--0-0-0-0-0-0-0-0-0------|
       P M P M P M P M P M P M P M P MPM    P M P M P M  P M P M P M P MPM

    e|-----------------------------------------------------------|
    B|--------------------------11-------------------------------|
GTR G|--------------------------14-------------------------------|
1+2 D|-----------------------------------------------------------|
    A|-0-0-0-0-00-0-0-0-00-0-0-----0-0-0-0-0-0-0-000-000-000-000-|
    D|-0-0-0-0-00-0-0-0-00-0-0-----0-0-0-0-0-0-0-000-000-000-000-|
       P M P M PM P MPM PM P M     P M P M P MPM P M P M P M P M

    e|--------------------------------------------------------------|
    B|----10------8------10----------11-------10------8---10--------|
GTR G|-10----10-9---9-10----10-10-12----12-10----10-9---9-10--------|
 1  D|--------------------------------------------------------------|
    A|--------------------------------------------------------------|
    D|--------------------------------------------------------------|

    e|-----------------------------------------------------------------------|
    B|-10-10-10-8-8-8-10-10-10-10-10-10-11-11-11-11-10-10-10-8-8-8-10--------|
GTR G|-10-10-10-9-9-9-10-10-10-10-10-10-12-12-12-12-10-10-10-9-9-9-10--------|
1+2 D|-----------------------------------------------------------------------| x3
    A|-----------------------------------------------------------------------|
    D|-----------------------------------------------------------------------|

    e|-----------------------------------------------------------------|
    B|-----------------------------------------------------------------|
GTR G|-10-12-10-9-10-9----9----------------9----9-10-9----9----------9-|
1+2 D|-----------------12---12-11-12-11-12---12--------12---12-11-12---| x2
    A|-----------------------------------------------------------------|
    D|-----------------------------------------------------------------|

    e|-----------------------------------------------------------------|
    B|-----------------------------------------------------------------|
GTR G|-10-12-10-9-10-9----9----------------9----9-10-9----9----------9-|
 1  D|-----------------12---12-11-12-11-12---12--------12---12-11-12---| x2
    A|-----------------------------------------------------------------|
    D|-----------------------------------------------------------------|

    e|--------------------------------------------------------------|
    B|-10-11-10-8-10-8----8--------------8----8-10-8----8---------8-|
GTR G|-----------------10---10-9-10-9-10---10--------10---10-9-10---|
 2  D|--------------------------------------------------------------| x2
    A|--------------------------------------------------------------|
    D|--------------------------------------------------------------|

    e|-------------17PH-------------17PH-------------17PH----------17PH-|
    B|----18PH-p17---------18PH-p17---------18PH-p17------18PH-p17------|
GTR G|------------------------------------------------------------------|
 1  D|------------------------------------------------------------------|
    A|-0----------------0----------------0------------------------------|
    D|-0----------------0----------------0------------------------------|
       PM               PM               PM

    e|-------------17PH-------------17PH-------------17PH----------17PH-|
    B|----18PH-p17---------18PH-p17---------18PH-p17------18PH-p17------|
GTR G|------------------------------------------------------------------|
 1  D|------------------------------------------------------------------|
    A|-0----------------0----------------0------------------------------|
    D|-0----------------0----------------0------------------------------|
       PM               PM               PM

    e|------------------------------------------------|
    B|------------------------------------------------|
GTR G|------------------------------------------------|
 2  D|------------------------------------------------|
    A|-0000-8p7-5-8p7-5-8p7-5-8p7-5-8p7-5-8p7-5-8p7-5-|
    D|-0000-------------------------------------------|
       PMPM

    e|-------------17PH-------------17PH-------------17PH----------17PH-|
    B|----18PH-p17---------18PH-p17---------18PH-p17------18PH-p17------|
GTR G|------------------------------------------------------------------|
 1  D|------------------------------------------------------------------| x2
    A|-0----------------0----------------0------------------------------|
    D|-0----------------0----------------0------------------------------|
       PM               PM               PM

    e|-------------------------------------------------|
    B|-------------------------------------------------|
GTR G|-------------------------------------------------|
 2  D|-------------------------------------------------| x2
    A|-8p7-5-8p7-5-8p7-5-8p7-5-8p7-5-8p7-5-8p7-5-8p7-5-|
    D|-------------------------------------------------|

    e|---------|
    B|---------|
GTR G|---------|
1+2 D|---------| x2
    A|-0-0-0-0-|
    D|-0-0-0-0-|
       P M P M

    e|-----------------------------------------------------------------|
    B|-----------------------------------------------------------------|
GTR G|-----------------------------------------------------------------|
1+2 D|-----------------------------------------------------------------| 1,2,4
    A|-8p7p5-5-8p7p5-5-7p5p3-3-7p5p3-3-5p3p1-1-5p3p1-1-7p5p3-3-7p5p3-3-|
    D|-----------------------------------------------------------------|

    e|-------------------------------------------------------------------------------|
    B|-------------------------------------------------------------------------------|
GTR G|-------------------------------------------------------------------------------|
1+2 D|-------------------------------------------------------------------------------| 3
    A|-8p7p5-5-8p7p5-5-10p8p7-7-10p8p7-7-12p10p8-8-12p10p8-8-13p12p10-10-13p12p10-10-|
    D|-------------------------------------------------------------------------------|

    e|-----------------------------------------------------------------------------|
    B|-------10----------10----------10----------10-10-101010-1010101010-101010-10-|
GTR G|-12h13----13-12h13----13-12h13----13-12h13----13-131313-1313131313-131313-13-|
 1  D|-----------------------------------------------------------------------------| x2
    A|-----------------------------------------------------------------------------|
    D|-----------------------------------------------------------------------------|

    e|-----------------------------------------------------------------|
    B|-----------------------------------------------------------------|
GTR G|-------------------------------------------------777-77777-777-7-|
 2  D|-------------------------------------------------666-66666-666-6-| x2
    A|-------------------------------------------------555-55555-555-5-|
    D|-----------------------------------------------------------------|

    e|-----------------------------------------------------------------------------|
    B|-------10----------10----------10----------10-10-101010-1010101010-101010-10-|
GTR G|-12h13----13-12h13----13-12h13----13-12h13----13-131313-1313131313-131313-13-|
 1  D|-----------------------------------------------------------------------------| 
    A|-----------------------------------------------------------------------------|
    D|-----------------------------------------------------------------------------|

    e|-----------------------------------------------------------------|
    B|-------10----------10----------10----------10-10-----------------|
GTR G|-12h13----13-12h13----13-12h13----13-12h13----13-777-77777-777-7-|
 2  D|-------------------------------------------------666-66666-666-6-| 
    A|-------------------------------------------------555-55555-555-5-|
    D|-----------------------------------------------------------------|

    e|-----------------------------------------------------------------------------|
    B|-----------------------------------------------------------------------10----|
GTR G|-----------------------------------------------------------------------13----|
 3  D|-----------------------------------------------------------------------------|
    A|-----------------------------------------------------------------------------|
    D|-----------------------------------------------------------------------------|

    e|----------------------------------------------------|
    B|-------10----------10----------10----------10-10-10-|
GTR G|-12h13----13-12h13----13-12h13----13-12h13----13-13-|
 1  D|----------------------------------------------------| 
    A|----------------------------------------------------|
    D|----------------------------------------------------|

    e|---------------------------------------------------|
    B|-------10----------10----------10----------10-10---|
GTR G|-12h13----13-12h13----13-12h13----13-12h13----13-7-|
 2  D|-------------------------------------------------6-| 
    A|-------------------------------------------------5-|
    D|---------------------------------------------------|

    e|----------------------------------------------------|
    B|-(10)-----------------------------------------------|
GTR G|-(13)-----------------------------------------------|
 3  D|----------------------------------------------------|
    A|----------------------------------------------------|
    D|----------------------------------------------------|

    e|--------------------------------------------------------|
    B|-111111-1111111111-111111-1111111111-111111-------------|
GTR G|-131313-1313131313-131313-1313131313-131313-14-13----13-|
 1  D|--------------------------------------------------15----|
    A|--------------------------------------------------------|
    D|--------------------------------------------------------|

    e|---------------------------------|
    B|-------------------------8-7---7-|
GTR G|-777-77777-777-77777-777-----8---|
 2  D|-666-66666-666-66666-666---------|
    A|-555-55555-555-55555-555---------|
    D|---------------------------------|

    e|-----------------------------------------------------|
    B|-111111-1111111111-111111-1111111111-111111----------|
GTR G|-131313-1313131313-131313-1313131313-131313-12-13/20-|
 1  D|-----------------------------------------------------|
    A|-----------------------------------------------------|
    D|-----------------------------------------------------|

    e|---------------------------------|
    B|-------------------------8-9/16--|
GTR G|-777-77777-777-77777-777---------|
 2  D|-666-66666-666-66666-666---------|
    A|-555-55555-555-55555-555---------|
    D|---------------------------------|

    e|--------------------------------------------------------|
    B|-111111-1111111111-111111-1111111111-111111-------------|
GTR G|-131313-1313131313-131313-1313131313-131313-14-13----13-|
 1  D|--------------------------------------------------15----|
    A|--------------------------------------------------------|
    D|--------------------------------------------------------|

    e|---------------------------------|
    B|-------------------------8-7---7-|
GTR G|-777-77777-777-77777-777-----8---|
 2  D|-666-66666-666-66666-666---------|
    A|-555-55555-555-55555-555---------|
    D|---------------------------------|

    e|--------------------------------------------------|
    B|-111111-1111111111-111111-1111111111-9------------|
GTR G|-131313-1313131313-131313-1313131313-12-----------|
 1  D|--------------------------------------------------|
    A|----------------------------------------000-000-0-|
    D|----------------------------------------000-000-0-|
                                              P M P MMP

    e|----------------------------------|
    B|---------------------7*-----------|
GTR G|-777-77777-777-77777-7*-----------|
 2  D|-666-66666-666-66666-7*-----------|
    A|-555-55555-555-55555----000-000-0-|
    D|------------------------000-000-0-|
                              P M P MPM
Добавлено: 31.05.2016
Другие материалы по этой песне:
  • Аккорды и текст

Страница создана 30.03.2012
http://primanota.ru/nodes-of-ranvier/do-you-wanna-dance--chords.htm
Привет, Гость.
Предлагаем пройти революционный курс по гитаре.
Подарок от PrimaNota.Ru, забирай!