PrimaNota.ru - самый крупный в мире бесплатный архив песенных текстов, аккордов, табулатур и нот


Nocturne - Shallow - таба, видео

Регистрация Запомнить меня
Войти через:  Facebook Google Twitter Vk Yandex Mail.ru

Nocturne - Shallow - таба, видео

Печатать
Просмотров: 109
-------------------------------------------------------------------------------
                             Nocturne - "Shallow"
-------------------------------------------------------------------------------
Tabbed by:DecayingSinner
Email:Decayingsinner@verizon.net

Tuning:Drop C

Intro / Chorus
D|----------------------------|
A|----------------------------|
F|----------------------------|
C|-0-0---10-10---5-5-5---3-3--|
G|-0-0---10-10---5-5-5---3-3--|
C|-0-0---10-10---5-5-5---3-3--|

Guit. 2
D|---------------------------------------------------------------------------------------|
A|---------------------------------------------------------------------------------------|
F|-12^12---12^12-------------------------------------------------------------------------|
C|---------------10-9--------------------------------------------------------------------|
G|---------------------------------------------------------------------------------------|
C|---------------------------------------------------------------------------------------|

Verse
D|---------------------------------------------------------------------------------|
A|---------------------------------------------------------------------------------|
F|---------------------------------------------------------------------------------|
C|-0-0-0-0-------------------------------------------------------------------------|
G|-0-0-0-0-------------------------------------------------------------------------|
C|-0-0-0-0-------------------------------------------------------------------------|

D|--------------------------------------------------------------------------------------|
A|--------------------------------------------------------------------------------------|
F|--------------------------------------------------------------------------------------|
C|-3-------------7----9/10--12----------------------------------------------------------|
G|-3-------------7----9/10--12----------------------------------------------------------|
C|-3-------------7----9/10--12----------------------------------------------------------|
  "I'm here to let you down, I'm here to disappoint"

www.Nocturne.cc

| /  slide up
| \  slide down
| h  hammer-on
| p  pull-off
| ~  vibrato
| +  harmonic
| x  Mute note
===============================================================================
Добавлено: 22.04.2012
Другие материалы по этой песне:
  • Аккорды и текст

Страница создана 22.04.2012
http://primanota.ru/nocturne/shallow-chords.htm
Привет, Гость.
Предлагаем пройти революционный курс по гитаре.
Подарок от PrimaNota.Ru, забирай!