PrimaNota.ru - самый крупный в мире бесплатный архив песенных текстов, аккордов, табулатур и нот


Nocturnal - War Of Spirits - таба, видео

Регистрация Запомнить меня
Войти через:  Facebook Google Twitter Vk Yandex Mail.ru

Nocturnal - War Of Spirits - таба, видео

Печатать
Просмотров: 76
-----------------------------------------------------------------------------
                            War of Spirits - Nocturnal
-----------------------------------------------------------------------------


    Band:  Nocturnal
    Album: Arrival of the Carnivore
    Song:  War of Spirits
    Copyright (c) Deathstrike Records
    Version 1.0 - 11/01/2012
    Transcribed By: ulfskeptr
    Email: malignitas-odium@hotmail.com

    http://www.myspace.com/nocturnalthrash


.  - palm mute           ,  - slight palm mute    
\  - slide down to       /  - slide up to
~  - vibrato             b  - bend
h  - hammer on           p  - pull off                  
[] - second time         *  - see comment
t  - tap                 ph - pinched harmonic
x  - staccato            () - ghost note, sustained note
"  - tremolo note        <> - trill

Suffixes for bend
f  - full bend    h - half bend
q  - quarter bend t - tap bend
^  - hold bend    r - release bend
~  - vibrato bend


Tuning: Tune down Half-Step

Riff 1 - 2x guitars only
eb|-------------------------------------------------------------------------|
Bb|-------------------------------------------------------------------------|
Gb|-------------------------------------------------------------------------|
Db|--4------3-------5------4-------4--3--5--4--4-4-3-4----------------------|
Ab|--2--2-2-1--1-1--3--3-3-2--2-2--2--1--3--2--2-2-1-2--2-2-----------------|
Eb|-------------------------------------------------------------------------|
        . .    . .     . .    . .                       . .

Riff 1 - 2x drums start
eb|-------------------------------------------------------------------------|
Bb|-------------------------------------------------------------------------|
Gb|-------------------------------------------------------------------------|
Db|--4------3-------5------4-------4--3--5--4--4-4-3-4----------------------|
Ab|--2--2-2-1--1-1--3--3-3-2--2-2--2--1--3--2--2-2-1-2--2-2-----------------|
Eb|-------------------------------------------------------------------------|
        . .    . .     . .    . .                       . .

Riff 2 - 2x
                                                        1.         2.
eb|--------------------------------------------------------------|----------|
Bb|--------------------------------------------------------------|----------|
Gb|--4------3-------5------4-------4--3--5--4--4-4-3-4-----------|----------|
Db|--2--2-2-1--1-1--3--3-3-2--2-2--2--1--3--2--2-2-1-2--2-2h3p2--|--2-2-----|
Ab|--------------------------------------------------------------|----------|
Eb|--------------------------------------------------------------|----------|
        . .    . .     . .    . .                       .           . .

Riff 1 - 2x
Riff 2 - 2x

Riff 3 - 6x
eb|-------------------------------------------------------------------------|
Bb|-------------------------------------------------------------------------|
Gb|--------------------------------3-------4p3------------------------------|
Db|-----------------3-------4p3----1-1-4p1-----1--5-------------------------|
Ab|--2-------3p2----1-1-4p1-----1-----------------3-3-6p3-3-2---------------|
Eb|--0-0-3p0-----0--------------------------------------------3-------------|
       .         .    .         .    .         .    .

Riff 4 - 4x
eb|-------------------------------------------------------------------------|
Bb|-------------------------------------------------------------------------|
Gb|----444-/7-3----444-/7-3----444-/7-3-------------------------------------|
Db|----222-/5-1----222-/5-1----222-/5-1------1------------------------------|
Ab|----------------------------------------3---3-2--------------------------|
Eb|--0-----------0-----------0----------0----------3-2----------------------|
     .           .           .          .            .      

Riff 1 - 2x
Riff 2 - 2x
Riff 1 - 2x
Riff 2 - 2x
Riff 3 - 4x
Riff 4 - 4x

Riff 5 - 3x
eb|-------------------------------------------------------------------------|
Bb|-------------------------------------------------------------------------|
Gb|-------------------------------------------------------------------------|
Db|-------------------------------5--------------------3--------------------|
Ab|--2------2---------------------3-(3)-(3)-(3)-6p5p3--1-(1)-(1)-(1)-4p3p1--|
Eb|--0--0-0-0--0-0-0-0-0-0-3p2p0--------------------------------------------|
        . .    . . . . . .           .   .   .            .   .   .

Riff 5 - 1x
eb|-------------------------------------------------------------------------|
Bb|-------------------------------------------------------------------------|
Gb|-------------------------------------------------------------------------|
Db|-------------------------------5--------------------3-3-3-3--------------|
Ab|--2------2---------------------3-(3)-(3)-(3)-6p5p3--1-1-1-1--------------|
Eb|--0--0-0-0--0-0-0-0-0-0-3p2p0--------------------------------------------|
        . .    . . . . . .           .   .   .          

Riff 3 - 4x
Riff 4 - 4x

End
eb|-----|
Bb|-----|
Gb|-----|
Db|-----|
Ab|--2--|
Eb|--0--|
Добавлено: 27.08.2013
Другие материалы по этой песне:
  • Аккорды и текст

Страница создана 27.08.2013
http://primanota.ru/nocturnal/war-of-spirits-chords.htm
Привет, Гость.
Предлагаем пройти революционный курс по гитаре.
Подарок от PrimaNota.Ru, забирай!