PrimaNota.ru - самый крупный в мире бесплатный архив песенных текстов, аккордов, табулатур и нот


Nocturnal - Victorious Night - таба, видео

Регистрация Запомнить меня
Войти через:  Facebook Google Twitter Vk Yandex Mail.ru

Nocturnal - Victorious Night - таба, видео

Печатать
Просмотров: 69
-----------------------------------------------------------------------------
                            Victorious Night - Nocturnal
-----------------------------------------------------------------------------


    Band:  Nocturnal
    Album: Arrival of the Carnivore
    Song:  Victorious Night
    Copyright (c) Deathstrike Records
    Version 1.0 - 11/01/2012
    Transcribed By: ulfskeptr
    Email: malignitas-odium@hotmail.com

    http://www.myspace.com/nocturnalthrash


.  - palm mute           ,  - slight palm mute
\  - slide down to       /  - slide up to
~  - vibrato             b  - bend
h  - hammer on           p  - pull off
[] - second time         *  - see comment
t  - tap                 ph - pinched harmonic
x  - staccato            () - ghost note, sustained note
"  - tremolo note        <> - trill

Suffixes for bend
f  - full bend    h - half bend
q  - quarter bend t - tap bend
^  - hold bend    r - release bend
~  - vibrato bend


Tuning: Tune down Half-Step

Riff 1
eb|-------------------------------------------------------------------------|
Bb|-------------------------------------------------------------------------|
Gb|--14-.-.-.-.-.-.--14-.-.-.-.-.-.--14-.-.-.-.-.-.--14-.-.-.-.-------------|
Db|--12-121212121212-12-121212121212-12-121212121212-12-12121212------------|
Ab|-------------------------------------------------------------------------|
Eb|-------------------------------------------------------------------------|


----------------------------------------------------------------------------|
----------------------------------10----13----------------------------------|
--10--9-......-9-....------9h10p9----9-----12-------------------------------|
--8---7-777777-7-7777--/10--------------------10----------------------------|
----------------------------------------------------------------------------|
----------------------------------------------------------------------------|


Riff 2
eb|-------------------------------------------------------------------------|
Bb|-------------------------------------------------------------------------|
Gb|--2-...----3------5------7------3------5--------------2-...--------------|
Db|--0-000--3---3--5---5--7---7--3---3--5---5--2-3-2-----0-000--------------|
Ab|--------------------------------------------------3-0--------------------|
Eb|-------------------------------------------------------------------------|

Riff 3
eb|-------------------------------------------------------------------------|
Bb|-------------------------------------------------------------------------|
Gb|--14-.-.-.-.-.-.--14--10-......-10---------------9-....-9--10--9--8------|
Db|--12-121212121212-12--8--888888-8--10-......-10--7-7777-7--8---7--6------|
Ab|-----------------------------------8--888888-8---------------------------|
Eb|-------------------------------------------------------------------------|

Break + End
eb|------|
Bb|------|
Gb|--14--|
Db|--12--|
Ab|------|
Eb|------|


Structure:

Riff 1 - 4x
Riff 2 - 4x
Riff 1 - 4x
Riff 2 - 4x
Riff 3 - 4x
Riff 1 - 4x
Riff 2 - 4x
Riff 3 - 4x
Break/Riff 1
Riff 2 - 4x
Riff 3 - 4x
End...
Добавлено: 23.06.2013
Вам также может быть интересно:
Другие материалы по этой песне:
  • Аккорды и текст

Страница создана 23.06.2013
http://primanota.ru/nocturnal/victorious-night-chords.htm
Привет, Гость.
Предлагаем пройти революционный курс по гитаре.
Подарок от PrimaNota.Ru, забирай!