PrimaNota.ru - самый крупный в мире бесплатный архив песенных текстов, аккордов, табулатур и нот


Nocturnal - Satanic Oath - таба, видео

Регистрация Запомнить меня
Войти через:  Facebook Google Twitter Vk Yandex Mail.ru

Nocturnal - Satanic Oath - таба, видео

Печатать
Просмотров: 71
-----------------------------------------------------------------------------
                               Satanic Oath - Nocturnal
-----------------------------------------------------------------------------


    Band:  Nocturnal
    Album: Arrival of the Carnivore
    Song:  Satanic Oath
    Copyright (c) Deathstrike Records
    Version 1.0 - 11/01/2012
    Transcribed By: ulfskeptr
    Email: malignitas-odium@hotmail.com

    http://www.myspace.com/nocturnalthrash


.  - palm mute           ,  - slight palm mute    
\  - slide down to       /  - slide up to
~  - vibrato             b  - bend
h  - hammer on           p  - pull off                  
[] - second time         *  - see comment
t  - tap                 ph - pinched harmonic
x  - staccato            () - ghost note, sustained note
"  - tremolo note        <> - trill

Suffixes for bend
f  - full bend    h - half bend
q  - quarter bend t - tap bend
^  - hold bend    r - release bend
~  - vibrato bend


Tuning: Tune down Half-Step

Riff 1 - 1x                              - 3x
eb|--------------------------------------|----------------------------------|
Bb|--------------------------------------|----------------------------------|
Gb|--------------------------------------|----------------------------------|
Db|-7-9-..............--7--7--7----------|-9-..............-7--7--7---------|
Ab|-5-7-77777777777777--5--5--5--8--8--8-|-7-77777777777777-5--5--5--8--8-8-|
Eb|------------------------------6--6--6-|---------------------------6--6-6-|

Riff 2 
eb|-------------------------------------------------------------------------|
Bb|-------------------------------------------------------------------------|
Gb|-------------------------------------------------------------------------|
Db|--9-.-.-----------12--8--9-.-.--9-.-.------------------------------------|
Ab|--7-7-7-----------10--6--7-7-7--7-7-7-----------8-8--9-.-----------------|
Eb|---------8p7-8p6-----------------------8p7-8p6--6-6--7-7-----------------|

Riff 3
eb|-------------------------------------------------------------------------|
Bb|-------------------------------------------------------------------------|
Gb|-------------------------------------------------------------------------|
Db|--9-............-10-9-7-9--.--.-.-.--8------.-...------------------------|
Ab|--7-777777777777-----------10-101010---8-7--9-999--12-10-8---------------|
Eb|--------------------------------------------7-777--10-8--6---------------|

Riff 4
eb|-------------------------------------------------------------------------|
Bb|-------------------------------------------------------------------------|
Gb|-------------------------------------------------------------------------|
Db|--9-....-9--8-9-..-12-11-8--9-....-9------------12-12-12-----------------|
Ab|--7-7777-7--6-7-77-10-9--6--7-7777-7--10-9-...--10-10-10-----------------|
Eb|--------------------------------------8--7-777---------------------------|


eb|------|
Bb|------|
Gb|------|
Db|--9\--|
Ab|--7\--|
Eb|------|


Structure:

Riff 1 - 4x
Riff 2 - 4x
Riff 3 - 4x
Riff 4 - 4x
Riff 1 - 4x
Riff 2 - 4x
Riff 3 - 4x
End...
Добавлено: 16.06.2013
Другие материалы по этой песне:
  • Аккорды и текст

Страница создана 16.06.2013
http://primanota.ru/nocturnal/satanic-oath-chords.htm
Привет, Гость.
Предлагаем пройти революционный курс по гитаре.
Подарок от PrimaNota.Ru, забирай!