PrimaNota.ru - самый крупный в мире бесплатный архив песенных текстов, аккордов, табулатур и нот


Nocturnal - Preventive War - таба, видео

Регистрация Запомнить меня
Войти через:  Facebook Google Twitter Vk Yandex Mail.ru

Nocturnal - Preventive War - таба, видео

Печатать
Просмотров: 73
-----------------------------------------------------------------------------
                            Preventive War - Nocturnal
-----------------------------------------------------------------------------


    Band:  Nocturnal
    Album: Arrival of the Carnivore
    Song:  Preventive War
    Copyright (c) Deathstrike Records
    Version 1.0 - 18/02/2013
    Transcribed By: ulfskeptr
    Email: malignitas-odium@hotmail.com

    http://www.myspace.com/nocturnalthrash


.  - palm mute           ,  - slight palm mute
\  - slide down to       /  - slide up to
~  - vibrato             b  - bend
h  - hammer on           p  - pull off
[] - second time         *  - see comment
t  - tap                 ph - pinched harmonic
x  - staccato            () - ghost note, sustained note
"  - tremolo note        <> - trill

Suffixes for bend
f  - full bend    h - half bend
q  - quarter bend t - tap bend
^  - hold bend    r - release bend
~  - vibrato bend


Tuning: Tune down Half-Step

Riff 1 - 8x                                     End on this:
eb|-----------------------------------------|------------------------------|
Bb|-----------------------------------------|------------------------------|
Gb|----------------------------------3-2----|--9\--------------------------|
Db|--------3-2----------------3-2-----------|--7\--------------------------|
Ab|-0-000------000--3-2--000------0---------|------------------------------|
Eb|-----------------------------------------|------------------------------|
    . ...      ...       ...      .

Riff 2
eb|------------------------------------------------------------------------|
Bb|------------------------------------------------------------------------|
Gb|-----------7--------------8--8------------------------------------------|
Db|--7-77-8p7---7----10-9-6--6--6--9--2-----6p5---5p4---4p3---3p2----------|
Ab|---------------8----------------7--0-00------0-----0-----0-----3p0------|
Eb|------------------------------------------------------------------------|
                                        ..      .     .     .

---------------------------------------------------------------------------|
---------------------------------------------------------------------------|
-----------8-7-5---------8-7-5--4--------3---------------------------------|
--2--------6-5-3---------6-5-3--2-22-3p2---2-2p0-2p0--4--------3p2---------|
--0-00-2p0--------00-2p0------------------------------2-22-3p2-------------|
--------------------------------------------------------------------3------|
    ..            ..              ..                    ..

---------------------------------------------------------------------------|
---------------------------------------------------------------------------|
---------------------------------------------------------------------------|
--------------3--------------------------5---------------2---2-5-2---------|
--3-----3-----------3-----3-----5-----5-----------5------0-5---------------|
--1-111---111---111---111---111-3-333---333---333---333--------------------|
    ...   ...   ...   ...   ...   ...   ...   ...   ...

Bridge - 8x - Guitar 1
eb|------------------------------------------------------------------------|
Bb|------------------------------------------------------------------------|
Gb|------------------------------------------------------------------------|
Db|--2-2-2-2---------------------------------------------------------------|
Ab|--0-0-0-0---------------------------------------------------------------|
Eb|------------------------------------------------------------------------|
     x x x x

Then Guitar 2 comes in - 4x         End
eb|--------------------------------|---------------------------------------|
Bb|--------------------------------|---------------------------------------|
Gb|-----------8-7-5----------------|--8------------------------------------|
Db|--2--------6-5-3----------------|--6--x\--------------------------------|
Ab|--0-000000----------------------|-----x\--------------------------------|
Eb|--------------------------------|---------------------------------------|
       ......

Riff 3 - 2x
eb|------------------------------------------------------------------------|
Bb|------------------------------------------------------------------------|
Gb|-------------------------------4-------------------------4\3/4----------|
Db|--2-----2-----5\4--2-----2-----2--2-----2-----5\4--2-----2\1/2----------|
Ab|--0-000-0-000-3\2--0-000-0-000----0-000-0-000-3\2--0-000----------------|
Eb|------------------------------------------------------------------------|
       ...   ...        ...   ...      ...   ...        ...

Riff 1 - 4x
Riff 3 - 2x
Riff 2

Bridge 2 - 1x    - 4x--------------------------------------------------------|
- play this several times
eb|-------------|---------------------------------|--------------------------|
Bb|-------------|---------------------------------|--------------------------|
Gb|-------------|---------------------------------|--------------------------|
Db|--2-2-2-2-2--|--------------2-------------3-2--|-----------------------2--|
Ab|--0-0-0-0-0--|--0-2-0-3p2p0---0-2-0-3p2p0------|-0-2-0-3p2p03p2p03p2p0-0--|
Eb|-------------|---------------------------------|--------------------------|
     x x x x x     . . .         . . .              . . .                 x

Riff 4 - 4x
eb|------------------------------------------------------------------------|
Bb|------------------------------------------------------------------------|
Gb|------------------------------------------------------------------------|
Db|--------------2-------------3-2-----------------------------------------|
Ab|--0-2-0-3p2p0---0-2-0-3p2p0---------------------------------------------|
Eb|------------------------------------------------------------------------|
     . . .         . . .

Riff 3 - 2x
Riff 1 - 4x
Riff 3 - 2x
Riff 2

End
eb|-------------|
Bb|-------------|
Gb|-------------|
Db|--2-2-2-2-2--|
Ab|--0-0-0-0-0--|
Eb|-------------|
     x x x x x
Добавлено: 10.08.2013
Другие материалы по этой песне:
  • Аккорды и текст

Страница создана 10.08.2013
http://primanota.ru/nocturnal/preventive-war-chords.htm
Привет, Гость.
Предлагаем пройти революционный курс по гитаре.
Подарок от PrimaNota.Ru, забирай!