PrimaNota.ru - самый крупный в мире бесплатный архив песенных текстов, аккордов, табулатур и нот


Nocturnal - Merciless Murder - таба, видео

Регистрация Запомнить меня
Войти через:  Facebook Google Twitter Vk Yandex Mail.ru

Nocturnal - Merciless Murder - таба, видео

Печатать
Просмотров: 81
-----------------------------------------------------------------------------
                            Merciless Murder - Nocturnal
-----------------------------------------------------------------------------


    Band:  Nocturnal
    Album: Arrival of the Carnivore
    Song:  Merciless Murder
    Copyright (c) Deathstrike Records
    Version 1.0 - 15/02/2013
    Transcribed By: ulfskeptr
    Email: malignitas-odium@hotmail.com

    http://www.myspace.com/nocturnalthrash


.  - palm mute           ,  - slight palm mute
\  - slide down to       /  - slide up to
~  - vibrato             b  - bend
h  - hammer on           p  - pull off
[] - second time         *  - see comment
t  - tap                 ph - pinched harmonic
x  - staccato            () - ghost note, sustained note
"  - tremolo note        <> - trill

Suffixes for bend
f  - full bend    h - half bend
q  - quarter bend t - tap bend
^  - hold bend    r - release bend
~  - vibrato bend


Tuning: Tune down Half-Step

Riff 1 - both guitars
eb|-----------------------------------------------------------------------|
Bb|-----------------------------------------------------------------------|
Gb|-----------------------------------------------------------------------|
Db|-3--2--------2--------3--------0h2----3--------------------------------|
Ab|-3--0-0-0-0----0-0-0----0-0-0---------3--------3--------4--------3p2p0-|
Eb|-1---------------------------------0--1-1-1-1----1-1-1----1-1-1--------|
         . . .    . . .    . . .      .    . . .    . . .    . . .

--------------------------------------------------------------------------|
--------------------------------------------------------------------------|
--------------------------------------------------------------------------|
--2--------2--------3--------0h2-----3------------------------------------|
--0-0-0-0----0-0-0----0-0-0----------3--------3--------3p2p0--------------|
----------------------------------0--1-1-1-1----1-1-1--------3p2p0--------|
    . . .    . . .    . . .       .    . . .    . . .

--------------------------------------------------------------------------|
--------------------------------------------------------------------------|
--------------------------------------------------------------------------|
--2--------2--------3--------0h2-----3------------------------------------|
--0-0-0-0----0-0-0----0-0-0----------3--------3--------4--------3p2p0-----|
----------------------------------0--1-1-1-1----1-1-1----1-1-1------------|
    . . .    . . .    . . .       .    . . .    . . .    . . .

--------------------------------------------------------------------------|
--------------------------------------------------------------------------|
--------------------------------------------------------------------------|
--2--------2--------3--------0h2-----3------------------------------------|
--0-0-0-0----0-0-0----0-0-0----------3--------3--------3p2p0--------------|
----------------------------------0--1-1-1-1----1-1-1--------3p2p0--------|
    . . .    . . .    . . .       .    . . .    . . .

--------------------------------------------------------------------------|
--------------------------------------------------------------------------|
--------------------------------------------------------------------------|
--2--------2--------3--------0h2-----3------------------------------------|
--0-0-0-0----0-0-0----0-0-0----------3--------3--------4--------3p2p0-----|
----------------------------------0--1-1-1-1----1-1-1----1-1-1------------|
    . . .    . . .    . . .       .    . . .    . . .    . . .

-------------------------------------------------------------------------|
-------------------------------------------------------------------------|
----------------------------------------------------------3p2p0----------|
--2--------2--------3--------0h2-----3--------------3p2p0----------------|
--0-0-0-0----0-0-0----0-0-0----------3--------3p2p0----------------------|
----------------------------------0--1-1-1-1-----------------------------|
    . . .    . . .    . . .       .    . . .

Riff 2 - guitar 1
eb|----------------------------------------------------------------------|
Bb|----------------------------------------------------------------------|
Gb|----------------------------------------------------------------------|
Db|--2-------------3p0--2-------------3p0--2-------------3p0-------------|
Ab|--0-0-0-0-0-1p0------0-0-0-0-0-1p0------0-0-0-0-0-1p0-----------------|
Eb|----------------------------------------------------------------------|
       . . . .            . . . .            . . . .

---------------------|
---------------------|
---------------------|
--2-------------3p0--|
--0-0-0-0-0-1p0------|
---------------------|
    . . . .


Riff 2 - 2x - both guitars
eb|----------------------------------------------------------------------|
Bb|----------------------------------------------------------------------|
Gb|----------------------------------------------------------------------|
Db|--2-------------3p0--2-------------3p0--2-------------3p0-------------|
Ab|--0-0-0-0-0-1p0------0-0-0-0-0-1p0------0-0-0-0-0-1p0-----------------|
Eb|----------------------------------------------------------------------|
       . . . .            . . . .            . . . .

-------------------------------------------------------------------------|
-------------------------------------------------------------------------|
-------------------------------------------------------------------------|
--2-------------3p0--5-------------6p5--5-------------6p5----------------|
--0-0-0-0-0-1p0------3-3-3-3-3-4p3------3-3-3-3-3-4p3--------------------|
-------------------------------------------------------------------------|
    . . . .            . . . .            . . . .

----------------------------------------|
----------------------------------------|
----------------------------------------|
-5-------------6p5--5----------6p5-5p3--|
-3-3-3-3-3-4p3------3-3-3-3-3-----------|
----------------------------------------|
                      . . . .

Riff 3 - 4x
eb|-------------------------------------|--------------------------------|
Bb|-------------------------------------|--6-6-4-5-----------------------|
Gb|----------2--------------------------|--3-3-1-2-----------------------|
Db|--2-2-3p2---2-3p2-----------2--------|--------------------------------|
Ab|--0---------------3p0-0-----0-2-2-2--|--------------------------------|
Eb|--------------------------1----------|--------------------------------|
                                 . . .

Bridge
eb|-------------------|
Bb|-------------------|
Gb|--------------5-4--|
Db|--2--3--22-2--5-4--|
Ab|--0--3--22-2--3-2--|
Eb|-----1--00-0-------|


Riff 1 - 2x
Riff 2 - 2x
Riff 3 - 4x
End    - 2x second part of Riff 3
Добавлено: 08.12.2013
Другие материалы по этой песне:
  • Аккорды и текст

Страница создана 08.12.2013
http://primanota.ru/nocturnal/merciless-murder-chords.htm
Привет, Гость.
Предлагаем пройти революционный курс по гитаре.
Подарок от PrimaNota.Ru, забирай!