PrimaNota.ru - самый крупный в мире бесплатный архив песенных текстов, аккордов, табулатур и нот


Nocturnal Rites - Pentagram - текст песни, таба, видео

Регистрация Запомнить меня
Войти через:  Facebook Google Twitter Vk Yandex Mail.ru

Nocturnal Rites - Pentagram - текст песни, таба, видео

Печатать
Просмотров: 128
Уроки эстрадного вокала в Санкт-Петербурге
		   Email me: iplaybass@ev1.net


this is pentagram as played by nocturnal rites(tales of mystery and
imagination) 
standard tuning-ebgdae
enjoy!


E ----------------------------------------------------------------|
B ----------------------------------------------------------------|
G ----------------------------------------------------------------|
D -0-0-7-0-0-8-0-0-5-0-0-7-0-0-5-7-0-0-7-0-0-8-0-0-7-0-5-0-3-0-2~-|
A ----------------------------------------------------------------|
E ----------------------------------------------------------------|

E ----------------------------------------------------------|-----|
B ----------------------------------------------------------|-----|
G ----------------------------------------------------------|-----|
D -0-0-7-0-0-8-0-0-5-0-0-5-7-8-7-5-----------7-5------------|-7---|
A ---------------------------------8-7-5-4-5-----8-7-5-4-0~-|-5---|
E ----------------------------------------------------------|-----|

E ---------------------------------------------------------------------|
B ---------------------------------------------------------------------|
G ---------------------------------------------------------------------|
D -7----------------6---------------7----------------9-----------------|
A -5-5555555555555554-444444444444445-5555555555555557-777777777777777-|
E ---------------------------------------------------------------------|

E -----------------------------------------------------------|
B -----------------------------------------------------------|
G ------------------------------------------------------5-7~-|(repeat)
D -10--------9---------6---------7~---------------5-7-8------|
A -8-888888887-7777777/4-4444444-5~---------5-7-8------------|
E -----------------------------------------------------------|

E -----------------------------------------------------|
B -----------------------------------------------------|
G -------------5-7~------------------------------------|
D -------5-7-8------0~-8-7-5------------8-7-5----------|
A -5-7-8---------------------8-7-5-7~---------8-7-5-8~-|
E -----------------------------------------------------|

E ---------------------------|-----------------------------
B ---------------------------|---------------------------
G ---------------------------|-----------------------------
D -8-7-5-------7~-5~---------|-------------------------------------
A -------8-7-5-------8~-7~-5-|----------------------------------------
E ---------------------------|---------------------------------------

ill do the solo some other time when im free...
(email me for questions and comment)
     
Добавлено: 01.08.2013
Другие материалы по этой песне:

Страница создана 05.03.2012
http://primanota.ru/nocturnal-rites/pentagram-chords.htm
Привет, Гость.
Предлагаем пройти революционный курс по гитаре.
Подарок от PrimaNota.Ru, забирай!