PrimaNota.ru - самый крупный в мире бесплатный архив песенных текстов, аккордов, табулатур и нот


Nocturnal Depression - Spring - таба, видео

Регистрация Запомнить меня
Войти через:  Facebook Google Twitter Vk Yandex Mail.ru

Nocturnal Depression - Spring - таба, видео

Печатать
Просмотров: 59
-------------------------------------------------------------------------------
                             SPRING - Nocturnal Depression
-------------------------------------------------------------------------------
Tabbed by: Dan "Slaugh" Baruch
E-mail: halakthrowingup@gmail.com

Tuning: E A D G B E (standard)

e|------------------------------------------------------------------------------|
B|------------------------------------------------------------------------------|
G|------------------------------------------------------------------------------|
D|11-----9-12--11--9-11-----9-12--11--12----------------------------------------|
A|---------------------------------------11-----9-12--11--9-11-----9-12--11--9--|
E|------------------------------------------------------------------------------|

e|------------------------------------------------------------------------------------------|
B|------------------------------------------------------------------------------------------|
G|------------------------------------------------------------------------------------------|
D|11-11-11-11-11-11-9-9-12-12-12-11-11-11-9-9-11-11-11-11-11-11-9-9-12-12-12-11-11-11-12-12-|
A|0--0--0--0--0--0--0-0-0--0--0--0--0--0--0-0-0--0--0--0--0--0--0-0-0--0--0--0--0--0--0--0--|
E|------------------------------------------------------------------------------------------|

e|----------------------------------------------------------------------------------------|
B|----------------------------------------------------------------------------------------|
G|----------------------------------------------------------------------------------------|
D|----------------------------------------------------------------------------------------|
A|11-11-11-11-11-11-9-9-12-12-12-11-11-11-9-9-11-11-11-11-11-11-9-9-12-12-12-11-11-11-9-9-|
E|0--0--0--0--0--0--0-0-0--0--0--0--0--0--0-0-0--0--0--0--0--0--0-0-0--0--0--0--0--0--0-0-|

Repeat the last two (besides the intro part) 20 times. Yes, 20 times, if I counted correctly in the recording.

e|------------------------------------------------------------------------------------------------|
B|------------------------------------------------------------------------------------------------|
G|11-11-11-11-11-11-13-13-14-14-14-13-13-13-11-11-11-11-11-11-11-11-13-13-14-14-14-16-16-16-------|
D|------------------------------------------------------------------------------------------13-13-|
A|------------------------------------------------------------------------------------------------|
E|------------------------------------------------------------------------------------------------|

e|----------------------------------------------------------------------------------------|
B|----------------------------------------------------------------------------------------|
G|----------------------------------------------------------------------------------------|
D|11-11-11-11-11-11-9-9-12-12-12-11-11-11-9-9-11-11-11-11-11-11-9-9-12-12-12-11-11-11-9-9-|
A|0--0--0--0--0--0--0-0-0--0--0--0--0--0--0-0-0--0--0--0--0--0--0-0-0--0--0--0--0--0--0-0-|
E|----------------------------------------------------------------------------------------|

Repeat the song again or as many times as it continues...hope you enjoy. Hail Nocturnal Depression. Hail DSBM.
Добавлено: 07.11.2015
Другие материалы по этой песне:
  • Аккорды и текст

Страница создана 07.11.2015
http://primanota.ru/nocturnal-depression/spring-chords.htm
Привет, Гость.
Предлагаем пройти революционный курс по гитаре.
Подарок от PrimaNota.Ru, забирай!