PrimaNota.ru - самый крупный в мире бесплатный архив песенных текстов, аккордов, табулатур и нот


Noctem - Across Heracles Towards - таба, видео

Регистрация Запомнить меня
Войти через:  Facebook Google Twitter Vk Yandex Mail.ru

Noctem - Across Heracles Towards - таба, видео

Печатать
Просмотров: 66
SONG-----------ACROSS HERACLES TOWARDS
BAND-----------NOCTEM
TABBED BY: Igor Death Metal
NOT SURE ABOUT THE TUNING ,PROBABLELY TUNE IN C

Hi, this is my first tab so some notes can be totality wrong
Coments in my e-mail
cob-hate@ig.com
Anyway thi is the first tab of Noctem so.. it's a beginning!

RIFF  A  ( LISTEN TO THE SONG TO KNOW HOW MANY TIMES THE RIFFS ARE PLAYED)

|--------------------------------------------------|
|--------------------------------------------------|
|--------------------------------------------------|
|--9-----------------------9-----------------------|
|--7--9-10--7--9--5--7-10--7--9-10--7--9--5--7-10--|
|-----7--8--5--7--3--5--8-----7--8--5--7--3--5--8--|

RIFF B

|--------------------------------------------------------------------------|
|--------------------------------------------------------------------------|
|--------------------------------------------------------------------------|
|--------------------------------------------------------------------------|
|--7--10------7—-10--------------------------------------------------------|
|--------000---------000--7--10--000—-7--10--000--6--9--000--6--9--000-----|

|------------------------|
|------------------------|
|------------------------|
|------------------------|
|------------------------|
|--4--7--000--4--7--000--|

RIFF  C

|------------------------------------------------------|
|------------------------------------------------------|
|---------------8--7-----------------------------------|
|-----9--10--9--------10--9-----9--10--9-----9--10--9--|
|--7---------------------------------------------------|
|----------------------------8------------7------------|

RIFF D for guitar one

|-----------------------------------------------------------------------------|
|-----------------------------------------------------------------------------|
|--t20p11-t16p7-t20p11-t20p7--------------------------------------------------|
|----------------------------11p7h11p7h11p7h11p7-t20p7-t15p7-t20p7-t15p7-10p7-|
|-----------------------------------------------------------------------------|
|-----------------------------------------------------------------------------|


|-----------------------------------------------------------------------------|
|-----------------------------------------------------------------------------|
|-----------------------------------------------------------------------------|
|h10p7h10p7h10p7--------------------------------------------------------------|
|-----------------------------------------------------------------------------|
|---------------10p9p7h10p9p7t15p10p9t15p10p9p7h10p9p7h9p8p6h9p8p6h8p7p5h8p7p5|


|-----------------------------------------------------------------------------|
|-----------------------------------------------------------------------------|
|--t20p11-t16p7-t20p11-t20p7--------------------------------------------------|
|----------------------------11p7h11p7h11p7h11p7-t20p7-t15p7-t20p7-t15p7-10p7-|
|-----------------------------------------------------------------------------|
|-----------------------------------------------------------------------------|

|-----------------------------------------------------------------------------|
|-----------------------------------------------------------------------------|
|---------------20p16h20p16h20p16h20p17-t22p20p16t22p20p16-t21p20p16t21p20p16-|
|h10p7h10p7h10p7--------------------------------------------------------------|
|-----------------------------------------------------------------------------|
|-----------------------------------------------------------------------------|

RIFF D for guitar two

|-----------------------------------------------------------------|
|-----------------------------------------------------------------|
|-----------------------------------------------------------------|
|-----------------------------------------------------------------|
|-----------------------------------------------------------------|
|-h7p6p4h7p6p4h9p8p6h9p8p6h7p6p4h7p6p4h9p8p6h9p8p6-10p9p7h10p9p7--|


|-----------------------------------------------------|
|-----------------------------------------------------|
|-----------------------------------------------------|
|-----------------------------------------------------|
|-----------------------------------------------------|
|-t15p10p9t15p10p9p7h10p9p7h9p8p6h9p8p6h8p7p5h8p7p5---|


EXIST COVERS WHO PLAY RIFF D THIS WAY


|-----------------------------------------------------------------------------|
|-----------------------------------------------------------------------------|
|-----------------------------------------------------------------------------|
|-----t15p7t15p7h12tr7-----t15p7t15p7h12tr7-----------------------------------|
|12tr7----------------12tr7---------------------------------------------------|
|------------------------------------------12tr7-t15p7t15p7h12tr7h10tr6h9tr5--|

THEM GTR ONE PLAY RIFF A FOUR TIMES 

THEM GUITAE TWO COMES WITH A LICK IN THE THIRD TIME

LICK A

|---------------------------------------|-------------------------------------|
|---------------------------------------|-------------------------------------|
|---------------------------------------|8888-----------------------------4444|
|---------------------------------------|----8888-9999-6666-8888-4444-6666----|
|-7777-----------------------------3333-|-------------------------------------|
|-----7777-8888-5555-7777-3333-5555-----|-------------------------------------|

THEM RIFF B

RIFF E 


|-----------------------------------------------------------------------|
|-----------------------------------------------------------------------|
|-------------------8---7-----------------------------------------------|
|------9---10---9-----------10---9-------9---10---9-------9---10---9----|
|--7-7---7----7---7---7---7----7---7------------------------------------|
|------------------------------------8-8---8----8---8-7-7---7----7---7--|


                                    * After the solo this riff is done again
RIFF F FOR GUITAR ONE                but replace this picking for a harmonic
                                     ||||||||
|---------------------------------------------------------------------------|
|---------------------------------------------------------------------------|
|---------------------------------------------------------------------------|
|-77777777-55555555-55555555-55554444--------------------44445577-55554444--|
|------------------------------------77777777----77777777-------------------|
|--------------------------------------------8888---------------------------|


|-----------------------------------------------------------------------|
|-----------------------------------------------------------------------|
|-----------------------------------------------------------------------|
|-44444444--------------------------------------------------------------|
|---------77777755-77777777-55555555-----------------55557799-77775555--|
|-----------------------------------88888888-55558888-------------------|

RIFF F FOR GUITAR TWO

|-----------------------------------------------------------------------------|
|-----------------------------------------------------------------------------|
|-----------------------------------------------------------------------------|
|-777777775555555555554444----------------------------------------------------|
|-------------------------77777777----44445577555544447777777755555555445555--|
|---------------------------------8888----------------------------------------|


|------------------------------------------------------|
|------------------------------------------------------|
|------------------------------------------------------|
|-4444-----------------------444444445555777755554444--|
|-----[7]~-----------77777777--------------------------|
|------------88888888----------------------------------|

RIFF G for guitar one

|------------------------------------------------------------------------|
|------------------------------------------------------------------------|
|------------------------------------------------------------------------|
|-77777777-101010107799--------------------------------------------------|
|----------------------1010101010101010-1414141412121212-----------------|
|-------------------------------------------------------1313131313131313-|


|-----------------------------------------------------------------------------|
|-----------------------------------------------------------------------------|
|-----------------------------------------------------------------------------|
|--------------------------------------77777777-10101010107799----------------|
|-------------------------------------------------------------1010101010101010|
|-1313131313131313-12121010131312121010---------------------------------------|


|--------------------------------------------------------------------------|
|--------------------------------------------------------------------------|
|--------------------------------------------------------------------------|
|--------------------------------------------------------------------------|
|-1414141412121212---------------------------------------------------------|
|-----------------1313131313131313-1313131313131313-10101212131312121010---|

RIFF G FOR GUITAR TWO

|-------------------------------------------------------------------------|
|-------------------------------------------------------------------------|
|-------------------------------------------------------------------------|
|-7777777777777777-5555555555555555-4444444444444444----------------------|
|----------------------------------------------------55557777888877775555-|
|-------------------------------------------------------------------------|


|---------------------------------------------------------------------|
|---------------------------------------------------------------------|
|---------------------------------------------------------------------|
|-7777777777777777-5555555555555555-4444444444444444------------------|
|----------------------------------------------------7777558877775555-|
|---------------------------------------------------------------------|

RIFF H  BREAKDOWN  GUITAR ONE
                                             End one,end three,end five
|--------|----------------------------------|---------------------------------|
|--------|----------------------------------|---------------------------------|
|--------|----------------------------------|---------------------------------|
|-0~~----|----------------------------------|---------------------------------|
|-0~~----|----------------------------------|---------------------------------|
|-0~~----|-12h13p12p0-13h15p13p0-15h17p15p0-|-17h18p17p0-15h17p15p0-13h15p13p0|

End two              End four,end eight
|-------------------|------------------------------------|
|-------------------|------------------------------------|
|-------------------|------------------------------------|
|-------------------|------------------------------------|
|-------------------|------------------------------------|
|-17h18p17p0-[15]~~-|-17h18p17s12-12h13p12p0-10h12p10p0--|

End six                             end seven 
|-----------------------------------|---------------------------------|
|-----------------------------------|---------------------------------|
|-----------------------------------|---------------------------------|
|-----------------------------------|-15h17p15------------------------|
|-----------------------------------|---------------------------------|
|-17h18p17s12-15h17p15p0-13h15p13p0-|----------15h17p15p0-13h15p13p0--|

RIFF H GUITAR TWO 

|--------|-------------------------------|
|--------|-------------------------------|
|--------|-------------------------------|
|-0~~----|-------------------------------|
|-0~~----|-------------------------------|
|-0~~----|-0-1--1-3--3-5--5-8-8-7-7-5-5--|

THEM RIFF D 

NOW COMES THE SOLO 

|-----------|---------------------------------------|
|-----------|---------------------------------------|
|-----------|---------------------------------------|
|--\0~~~~---|---------------------------------------|
|--\0~~~~---|--//7--/\9\\--/-13-\----/-12~~---------|
|--\0~~~~---|---------------------------------------|

|-12p9-11p9----------------------------------------|
|-----------12p9-11p9------------------------------|
|---------------------11p9-10p9--------------------|
|-------------------------------10trill7h10trill7--|
|--------------------------------------------------|
|--------------------------------------------------|


|--------------------------------------------------|
|--------------------------------------------------|
|--------------------------------------------------|
|--10--8--7------8--7---------------------7--5—s2--|
|------------10--------10--8--7--5--7--8-----------|
|--------------------------------------------------|


|----------------------------------------------------------------------------|
|----------------------------------------------------------------------------|
|-10---11---15---13--10--11---16--11---10---8---6---4--3--4--3---------------|
|------------------------------------------------------------------7--5--3~--|
|--8----9---13---11---8---9---14---9----8---6---4---2--2--1--1--5------------|
|----------------------------------------------------------------------------|

SOLO BACKGROUND

|----------------------------------------------------------|
|----------------------------------------------------------|
|----------------------------------------------------------|
|--2--2--2--2-2~~~~~~---5--5--5--5-5~~----7--7--7--7-7~~---|
|--2--2--2--2-2~~~~~~---5--5--5--5-5~~----7--7--7--7-7~~---|
|--0--0--0--0-0~~~~~~---3--3--3--3-3~~----5--5--5--5-5~~---|

Them guitar background  plays  riff f for guitar one             following the note  I wrote there

THEM RIFF G 
THEM GUITAR BACKGROUND VONTINUES RIFF G WHILE GUITAR ONE PLAYS RIFF I

RIFF I

|------------------------------------------------------------|
|------------------------------------------------------------|
|------------------------------------------------------------|
|-9999-1212-88-11-11-----------------------------------------|
|-------------------12121212-1616-1212-1414------------------|
|------------------------------------------1515151515151515--|
END 1                  END 2
|---------------------|----------------------|
|---------------------|----------------------|
|---------------------|----------------------|
|---------------------|----------------------|
|---------------------|----------------------|
|-141412-15-14141212--|-1414-1212-1414-1515--|
THEM GUITAR SOLO PLAYS ITS RIFF G NO ACCOMPANIMENT MANY TIMES TILL THE DAMNING   
SONG FADES 

THEM COMES A CLEAR OUTRO WITH A ACOUSTIC GUITAR

|----3-------2------|-------|------2---3---2---5---4---3---2----|
|------5---5-----5--|-------|----5---5---5---5---5---5---5---5--|
|--4-----5-----5----|-MANY--|--4--------------------------------|
|-------------------|-TIMES-|-----------------------------------|
|-------------------|-------|-----------------------------------|
|-------------------|-------|-----------------------------------|


|----3-------2------|-------|-----------------------------------|
|------5---5-----5--|-------|-----------------------------------|
|--4-----5-----5----|-MANY--|--I-CANNOT HEAR-MORE---------------|
|-------------------|-TIMES-|--ANYWAY-THE-SONG-FADES...---------|
|-------------------|-------|-----------------------------------|
|-------------------|-------|-----------------------------------|

THAT'S ALL THANK FOR READING!!!

LEGEND :

H  : HAMER ON
P  : PULL OFF
[n]: HARMONIC
T  : TAPPING
 
BY: IGOR MARQUES
Добавлено: 07.07.2013
Другие материалы по этой песне:

Страница создана 07.07.2013
http://primanota.ru/noctem/across-heracles-towards-chords.htm
Привет, Гость.
Предлагаем пройти революционный курс по гитаре.
Подарок от PrimaNota.Ru, забирай!