PrimaNota.ru - самый крупный в мире бесплатный архив песенных текстов, аккордов, табулатур и нот


Nobuo Uematsu - Costa Del Sol - таба, видео

Регистрация Запомнить меня
Войти через:  Facebook Google Twitter Vk Yandex Mail.ru

Nobuo Uematsu - Costa Del Sol - таба, видео

Печатать
Просмотров: 107
Tabbed by PLZKLLME0080


Tuning: Standard (EADGBE)

      Rythem: this is played throughout most of the song.

Part 1
E--3---3------3---2--2---2---2--|
B--5---5------5---5--5---5---5--|
G--5---5------5---5--5---5---5--|
D-------------------------------|
A-------------------------------|
E-------------------------------|

Part2
E--1---1------1---0--0---0---0--|
B--3---3------3---3--3---3---3--|
G--3---3------3---3--3---3---3--|
D-------------------------------|
A-------------------------------|
E-------------------------------|

      Lead: (lets just call it that)

E----12-10-----------------------------------8--10--8-----|
B-13-----------8-9-10--------8-10----10-8-10-----------10-|
G--------------------------9------------------------------|
D---------------------------------------------------------|
A---------------------------------------------------------|
E---------------------------------------------------------|

E-----8-7-6--------------------------------10-13--12------|
B--10----------6-7-8----8-10-11--10-11--13----------------|
G---------------------------------------------------------|
D---------------------------------------------------------|
A---------------------------------------------------------|
E---------------------------------------------------------|

Play that how ever many times you want, then go to this part...


      Rythem
E--0---0---0------1---1--1---1---1--|
B--1---1---1------3---3--3---3---3--|
G--2---2---2------2---2--2---2---2--|
D-----------------------------------|
A-----------------------------------|
E-----------------------------------|


      Lead
E---12----10---12-----10-----------15----13---12-----10-----------|
B-----------------------11-10--------------------------11-10------|
G----------------------------10-----------------------------10----|
D-----------------------------------------------------------------|
A-----------------------------------------------------------------|
E-----------------------------------------------------------------|

      Rythem
E--2---2---2------3---3--3---3---3--|
B--3---3---3------5---5--5---5---5--|
G--4---4---4------6---6--6---6---6--|
D-----------------------------------|
A-----------------------------------|
E-----------------------------------|


      Lead
E---12----13---14-----9-----------17----15---14-----9-----------|
B-----------------------10-8--------------------------10-8------|
G----------------------------9-----------------------------9----|
D---------------------------------------------------------------|
A---------------------------------------------------------------|
E---------------------------------------------------------------|

Repeat as many times as you want.
Добавлено: 14.07.2012
Другие материалы по этой песне:

Страница создана 02.04.2012
http://primanota.ru/nobuo-uematsu/costa-del-sol-chords.htm
Привет, Гость.
Предлагаем пройти революционный курс по гитаре.
Подарок от PrimaNota.Ru, забирай!