PrimaNota.ru - самый крупный в мире бесплатный архив песенных текстов, аккордов, табулатур и нот


Nobuo Uematsu - Breezy Revised - таба, видео

Регистрация Запомнить меня
Войти через:  Facebook Google Twitter Vk Yandex Mail.ru

Nobuo Uematsu - Breezy Revised - таба, видео

Печатать
Просмотров: 61
This is a revised version of the Breezy tab that has been on here for a while. 
There are only a few changes. 
I used the format that Hendrix is King used and then found a more accurate version 
under Nobuo's name. 

Enjoy! 

h - hammer on
p - pull off
* - harmonic



e|-------2-------2--------2-------2--------0-------0--------3-------3-|
B|-----0-----0----------0-----0----------0-----0----------3-----3-----|
G|---2---------2------2---------2------0---------0------0---------0---|
D|-0----------------0----------------0----------------0---------------|
A|--------------------------------------------------------------------|
E|--------------------------------------------------------------------|

e|-------2-------2--------2-------2--------0-------0--3-----2-----0---|
B|-----0-----0----------0-----0----------0-----0----------3-----3-----|
G|---2---------2------2---------2------0---------0------4-----4-----3-|
D|-0----------------0----------------0----------------0-----0-----5---|
A|--------------------------------------------------------------------|
E|--------------------------------------------------------------------|
                                        
e|-------2-------2--------2-2h3p2-----2--------0-------0--------3----3-----|
B|-----2-----2----------2---------2----------3-----3--------2-----2----2---|
G|---2---------2------2-------------2------0---------0--------4-----4------|
D|-0----------------0--------------------0----------------0----------------|
A|-------------------------------------------------------------------------|
E|-------------------------------------------------------------------------|


e|-------2-------2--5-----3-----2---3-----2-----3---0-|
B|-----2-----2----------0---0-----0-----0-----0-----2-|
G|---2---------2------5-------5-------0-----0-----0-2-|
D|-0----------------0---------------2-----0-----0---2-|
A|----------------------------------------------------|
E|----------------------------------------------------|

e|-2-----2-------2--5-----5-------5--7-----7-------7--5-----5-------5-|
B|---3-------3--------6-------6--------8-------8--------7-------7-----|
G|-----2-------2--------5-------5--------7-------7--------7-------7---|
D|-0----------------0----------------0----------------0---------------|
A|--------------------------------------------------------------------|
E|--------------------------------------------------------------------|

e|-2-----2-------2--5-----5-------5--7-----7-------7---5--------------|
B|---3-------3--------6-------6--------8-------8----------7*----------|
G|-----2-------2--------5-------5--------7-------7-----------7*-------|
D|-0----------------0----------------0--------------------------7*----|
A|--------------------------------------------------------------------|
E|--------------------------------------------------------------------|

e|-------3---------5-----3----------------3-------3-5-----3---------|
B|-----3-----3---3---3-------3---3------3-----3-------3-------3---3-|
G|---4---------4-------4-------4------3---------3-------3-------3---|
D|-0---------------0----------------0---------------0---------------|
A|------------------------------------------------------------------|
E|------------------------------------------------------------------|

e|-------2-------2-------2-------2--------0----------3-|
B|-----0-------0-------0-------0--------3-----3---3--3-|
G|---2-------2-------2-------2--------3---------3----3-|
D|-0--------------------------------0----------------0-|
A|-----------------------------------------------------|
E|-----------------------------------------------------|


revised by CKtheTruth
9/15/2013
Добавлено: 31.08.2013
Другие материалы по этой песне:
  • Аккорды и текст

Страница создана 31.08.2013
http://primanota.ru/nobuo-uematsu/breezy-revised-chords.htm
Привет, Гость.
Предлагаем пройти революционный курс по гитаре.
Подарок от PrimaNota.Ru, забирай!