PrimaNota.ru - самый крупный в мире бесплатный архив песенных текстов, аккордов, табулатур и нот


Nobunny - Gone For Good - таба, видео

Регистрация Запомнить меня
Войти через:  Facebook Google Twitter Vk Yandex Mail.ru

Nobunny - Gone For Good - таба, видео

Печатать
Просмотров: 68
-------------------------------------------------------------------------------
                             Gone for Good - Nobunny
-------------------------------------------------------------------------------
Tabbed by: Redmildew
E-mail: redmildew@mail.ru

Tuning: Standard

Intro
e|-----------------------------------------------------------------------------|
B|-----------------------------------------------------------------------------|
G|-6-6--6-6-6--6-6-6--6-6-6--9-9-9--9-9-9--9-9-9--9-9-9--6-6-6--6-6-6--6-6-6---|
D|-6-6--6-6-6--6-6-6--6-6-6--9-9-9--9-9-9--9-9-9--9-9-9--6-6-6--6-6-6--6-6-6---|
A|-4-4--4-4-4--4-4-4--4-4-4--7-7-7--7-7-7--7-7-7--7-7-7--4-4-4--4-4-4--4-4-4---|
E|-----------------------------------------------------------------------------|

e|-------------------------------------|
B|-------------------------------------|
G|-6-6-6--9-9-9--9-9-9--9-9-9--9-9-9---|
D|-6-6-6--9-9-9--9-9-9--9-9-9--9-9-9---|
A|-4-4-4--7-7-7--7-7-7--7-7-7--7-7-7---|
E|-------------------------------------|

Verse 1
e||--------------------------------------------------------|| (x2)
B||--------------------------------------------------------|| 
G||-6-6-6--6-6-6--6-6-6--6-6-6--9-9-9--9-9-9--9-9-9--9-9-9-||
D||-6-6-6--6-6-6--6-6-6--6-6-6--9-9-9--9-9-9--9-9-9--9-9-9-||
A||-4-4-4--4-4-4--4-4-4--4-4-4--7-7-7--7-7-7--7-7-7--7-7-7-||
E|---------------------------------------------------------||

Chorus 1
e|-----------------------------------------------------------------------------------------|
B|-----------------------------------------------------------------------------------------|
G|-----------------------------------------------------------------------------------------|
D|------------------9-9-11-9-9-9-11-9------------------------------------------------------|
A|-7-7-9-7-7-7-9-7--7-7-7--7-7-7-7--7--7-7-9-7-7-7-9-7--9-9-11-9-9-9-11-9-9-9-11-9-9-9-11--|
E|-5-5-5-5-5-5-5-5---------------------5-5-5-5-5-5-5-5--7-7-7--7-7-7-7--7-7-7-7--7-7-7-7---|

Verse 2
e||--------------------------------------------------------|| (x4)
B||--------------------------------------------------------|| 
G||-6-6-6--6-6-6--6-6-6--6-6-6--9-9-9--9-9-9--9-9-9--9-9-9-||
D||-6-6-6--6-6-6--6-6-6--6-6-6--9-9-9--9-9-9--9-9-9--9-9-9-||
A||-4-4-4--4-4-4--4-4-4--4-4-4--7-7-7--7-7-7--7-7-7--7-7-7-||
E|---------------------------------------------------------||

Chorus 2
e|-----------------------------------------------------------------------------------------------|
B|-----------------------------------------------------------------------------------------------|
G|-----------------------------------------------------------------------------------------------|
D|------------------9-9-11-9-9-9-11-9------------------------------------------------------------|
A|-7-7-9-7-7-7-9-7--7-7-7--7-7-7-7--7--7-7-9-7-7-7-9-7--9-9-11-9-9-9-11-9-9-12-12-12-12-11-11-11-|
E|-5-5-5-5-5-5-5-5---------------------5-5-5-5-5-5-5-5--7-7-7--7-7-7-7--7-7-7--7--7--7--7--7--7--|

Solo
e|---------------------------------------9-7-------7-------------------------9-7-------7---------|
B|-7pb-7pb-7pb-7pb-7pb-7pb-7b9-------7-------9-7-9---9-9-7-9-7-7b9-------7-------9-7-9---9-9-----|
G|-----------------------------9-9-9---9---------------------------9-9-9---9---------------------|
D|-----------------------------------------------------------------------------------------------|
A|-----------------------------------------------------------------------------------------------|
E|-----------------------------------------------------------------------------------------------|

e|--------------------9-7--------------------------------|
B|-7---7----------7-------9-7---7------9-7---7-7bfull----|
G|---9---9--9-9-9---9---------9---9--9-----9-------------|
D|-------------------------------------------------------|
A|-------------------------------------------------------|
E|-------------------------------------------------------|

Verse 3
e||--------------------------------------------------------|| (x2)
B||--------------------------------------------------------|| 
G||-6-6-6--6-6-6--6-6-6--6-6-6--9-9-9--9-9-9--9-9-9--9-9-9-||
D||-6-6-6--6-6-6--6-6-6--6-6-6--9-9-9--9-9-9--9-9-9--9-9-9-||
A||-4-4-4--4-4-4--4-4-4--4-4-4--7-7-7--7-7-7--7-7-7--7-7-7-||
E|---------------------------------------------------------||

Chorus 3
e|----------------------------------------------------------------------------------------------|
B|----------------------------------------------------------------------------------------------|
G|--------------------------------------------------------------------------------------------6-|
D|------------------9-9-11-9-9-9-11-9---------------------------------------------------------6-|
A|-7-7-9-7-7-7-9-7--7-7-7--7-7-7-7--7--7-7-9-7-7-7-9-7--9-9-11-9-9-9-11-9-9-12-12-12-12-11-9--4-|
E|-5-5-5-5-5-5-5-5---------------------5-5-5-5-5-5-5-5--7-7-7--7-7-7-7--7-7-7--7--7--7--7--7----|


************************************

| /   slide up
| \   slide down
| h   hammer-on
| p   pull-off
| ~   vibrato
| +   harmonic
| x   Mute note
| b   Bend
| pb  Pre-bend
| br  Bend release
| pbr Pre-bend release
| brb Bend release bend

************************************
Добавлено: 17.06.2016
Другие материалы по этой песне:
  • Аккорды и текст

Страница создана 17.06.2016
http://primanota.ru/nobunny/gone-for-good-chords.htm
Привет, Гость.
Предлагаем пройти революционный курс по гитаре.
Подарок от PrimaNota.Ru, забирай!