PrimaNota.ru - самый крупный в мире бесплатный архив песенных текстов, аккордов, табулатур и нот


Nobody Knew - 18 - таба, бас-таба, видео

Регистрация Запомнить меня
Войти через:  Facebook Google Twitter Vk Yandex Mail.ru

Nobody Knew - 18 - таба, бас-таба, видео

Печатать
Просмотров: 119
---------------------------------------------------------------------------
			     18 - Nobody Knew
---------------------------------------------------------------------------

Tabbed by: Eric Minardi
Email: nobodyknew_music@hotmail.com

Tuning: DROP D [DADGBE]
  /  slide up
  \  slide down
  h  hammer-on
  p  pull-off
  ~  ring out
  +  harmonic
pm.. palm mute

Intro:[0:00] X2
e|------------------------------------------------------------------------|
B|------------------------------------------------------------------------|
G|---------------10-10-------------------------9-9------------------------|
D|---------10-10-------10-10-------------10-10-----10-10------------------|
A|-----8-8-------------------8-8-----8-8-----------------8-8--------------|
D|-8-8---------------------------8-8--------------------------------------|
pm..........................................................

e|------------------------------------------------------------------------|
B|------------------------------------------------------------------------|
G|---------------9-9--------------------------9h10p9----------------------|
D|---------10-10------10-10-------------10-10--------10---10--------------|
A|-----0-0------------------0-0-----0-0-----------------0-----------------|
D|-0-0--------------------------0-0---------------------------------------|
pm...........................................

Intro contd...[0:16]
e|------------------------------------------------------------------------|
B|------------------------------------------------------------------------|
G|---------------10-10-------------------------9-9------------------------|
D|---------10-10-------10-10-------------10-10-----10-10-----0~-----------|
A|-----8-8-------------------8-8-----8-8-----------------8-8-0~-----------|
D|-8-8---------------------------8-8-------------------------0~-----------|
pm..........................................................

Chorus: [0:24] X2 (tens not ones)
e|------------------------------------------------------------------------|
B|------------------------------------------------------------------------|
G|---------------------------5~-------10\9/10-----------------------------|
D|--88888-88888h101010-00000-5~-0000--x-\x/-x-----------------------------|
A|--88888-88888h101010-00000-3~-0000--8-\7/-8-----------------------------|
D|--88888-88888h101010-00000----0000--------------------------------------|
pm

Chorus Contd... [0:39]
e|------------------------------------------------------------------------|
B|------------------------------------------------------------------------|
G|--------------------------------333333-5~-------------------------------|
D|--888888-101010101010-0~---3~---333333-5~-------------------------------|
A|--888888-101010101010-0~---3~---111111-3~-------------------------------|
D|--888888-101010101010-0~---3~-------------------------------------------|
pm                                 .....

FIRST Verse: [0:50] Repeat INTRO x1 and INTRO CONTD... x1.. then..

FIRST Verse Contd... [1:06]
e|-------------------------------------------------------------------------|
B|-------------------------------------------------------------------------|
G|------10p910------10p910------12p910------12p910------10p910------10p910-|
D|------101010------101010------101010------101010------101010------101010-|
A|-8888--------8888--------0000--------0000--------8888--------8888--------|
D|-8888--------8888--------0000--------0000--------8888--------8888--------|
pm ....        ....        ....        ....        ....        ....

Pre Chorus: [1:17]
e|------------------------------------------------------------------------|
B|------------------------------------------------------------------------|
G|------33333/55555/77777-------------------------------------------------|
D|-0-00-xxxxx/xxxxx/xxxxx-------------------------------------------------|
A|-0-00-33333/55555/77777-------------------------------------------------|
D|-0-00-------------------------------------------------------------------|

Chorus: [1:20]

SECOND Verse: [1:46] x3 then..
e|------------------------------------------------------------------------|
B|------------------------------------------------------------------------|
G|--------10-------------9-------------9-------------12-------------------|
D|-----10----10-------10---10-------10---10-------10----10----------------|
A|---8----------8---8---------8---0---------0---0----------0--------------|
D|-8--------------8-------------0-------------0---------------------------|

[2:06]
e|------------------------------------------------------------------------|
B|------------------------------------------------------------------------|
G|--------10-------------9------9~----------------------------------------|
D|-----10----10-------10---10---10~---------------------------------------|
A|---8----------8---8---------8-0~----------------------------------------|
D|-8--------------8-------------0~----------------------------------------|

FIRST Verse Contd... [2:13]

Pre Chorus: [2:24]

Chorus: [2:27]

Interlude: [2:50] x4
e|------------------------------------------------------------------------|
B|------------------------------------------------------------------------|
G|------------------------------------------------------------------------|
D|-88888888888810101010101010101010/12~-----------------------------------|
A|-88888888888810101010101010101010/12~-----------------------------------|
D|-88888888888810101010101010101010/12~-----------------------------------|
pm ................................

Interlude contd... [3:20]
e|------------------------------------------------------------------------|
B|------------------------------------------------------------------------|
G|------------------------------------------------------------------------|
D|-8~----10~----8~----10101010101010101010/12-----------------------------|
A|-8~----10~----8~----10101010101010101010/12-----------------------------|
D|-8~----10~----8~----10101010101010101010/12-----------------------------|
pm                      ..................

LAST Chorus: [3:34]

Outro: [3:59]
e|------------------------------------------------------------------------|
B|------------------------------------------------------------------------|
G|------------------------------------------------------------------------|
D|--88888\--1010101010\--88888\--1010101010\------------------------------|
A|--88888\--1010101010\--88888\--1010101010\------------------------------|
D|--88888\--1010101010\--88888\--1010101010\------------------------------|

Outro contd: this is the main part of the outro but it does change up a bit
[4:13]       near the end... just mess around with it im far to lazy to tab
	     it all hah. :-)
e|------------------------------------------------------------------------|
B|------------------------------------------------------------------------|
G|-----109-10----109-10/--------121212--------121212----------------------|
D|-88881010108888101010/1010101010101010101010101010----------------------|
A|-88888-8-8-88888-8-8-/1010101010101010101010101010----------------------|
D|-88888-8-8-88888-8-8-/1010101010101010101010101010----------------------|

cooooooooooooooooooool.
Добавлено: 29.04.2012
Другие материалы по этой песне:
  • Аккорды и текст

Страница создана 29.04.2012
http://primanota.ru/nobody-knew/18-chords.htm
Привет, Гость.
Предлагаем пройти революционный курс по гитаре.
Подарок от PrimaNota.Ru, забирай!