PrimaNota.ru - самый крупный в мире бесплатный архив песенных текстов, аккордов, табулатур и нот


Noah Randazzo - Set Sail For Dreams - таба

Регистрация Запомнить меня
Войти через:  Facebook Google Twitter Vk Yandex Mail.ru

Noah Randazzo - Set Sail For Dreams - таба

Печатать
Просмотров: 34
Capo: 5th fret 
Don't count frets before the capo 1=6th fret 2= 7th so on
Background Guitar plays Chords: Cadd9, Em7, D/F# Or you can just play a drum beat on the guitar or play
a riff along with it. Enjoy :)

e|------------------------------------------------------------------------------|
B|----0---------3---------0---------3---------0---------3---------0---------3---|
G|------0---------0---------0---------0---------0---------0---------0---------0-|
D|------------------------------------------------------------------------------|
A|-3-3---3--3-3----3--3-3----3--3-3----3--2-2----2--2-2----2--2-2----2--2-2-----|
E|------------------------------------------------------------------------------|
(Repeat 2x)

e|------------------------------------------------------------------------------|
B|----0---------3---------0---------3---------0---------3---------0---------3---|
G|-----0---------0---------0---------0---------0---------0---------0---------0--|
D|------------------------------------------------------------------------------|
A|-0-0---0--0-0---0--0-0----0--0-0----0--2-2----2--3-3----3--3-3----3--3-3----3-|
E|------------------------------------------------------------------------------|

e|--------------------------------------------------------------------------------------------|
B|----0--------0--------0---------0----------0--------0--------0---------0----------0-------0-|
G|-----0--------0--------0---------0----------0--------0--------0---------0----------0-------0|
D|--------------------------------------------------------------------------------------------|
A|-5-5---5--7-7---7--9-9--9-10-10---10--9-9---9--7-7---7--6-6---6--10-10---10--9-9---9-7-7--|
E|--------------------------------------------------------------------------------------------|

e|------------------------------------------------------------------------------------|
B|----0--------0--------0--------0--------0--------0--------3--------0-----3--3--3--3-|
G|-----0--------0--------0--------0--------0--------0--------0--------0-----0--0--0---|
D|------------------------------------------------------------------------------------|
A|-6-6---6--5-5---5--5-5---5--4-4---4--4-4---4--3-3---3--3-3---3--2-2---0-0--0-0-0-0--|
E|------------------------------------------------------------------------------------|
 
Repeat whole song 3x
Добавлено: 19.04.2016
Другие материалы по этой песне:
  • Аккорды и текст

Страница создана 19.04.2016
http://primanota.ru/noah-randazzo/set-sail-for-dreams-chords.htm
Привет, Гость.
Предлагаем пройти революционный курс по гитаре.
Подарок от PrimaNota.Ru, забирай!