PrimaNota.ru - самый крупный в мире бесплатный архив песенных текстов, аккордов, табулатур и нот


Noah Guthrie - Where The Streets Have No Name - таба, видео

Регистрация Запомнить меня
Войти через:  Facebook Google Twitter Vk Yandex Mail.ru

Noah Guthrie - Where The Streets Have No Name - таба, видео

Печатать
Просмотров: 101
-------------------------------------------------------------------------------
where the streets have no name - Noah Guthrie Acoustic Cover
-------------------------------------------------------------------------------
Tabbed by:kwann1717

Tuning: standard tuning capo 2

this is my first go at writing tab
this is a great cover of an awesome song
its not 100% the way he plays it but really close.
i usually play it capo 2 but sounds good anywhere it fits your voice
hope this tab helps  

e|---------------------------------------------------------------------------------|
B|------------------0------------------------0-------------------------0-----------|
G|--------2-2-h-4-----4-p-2--------2-2-h-4------4-p-2---------2-2-h-4----4-p-2-----|
D|------0-------------------0----0--------------------0-----0------------------0---|
A|---------------------------------------------------------------------------------|
E|----3-------------3----------3-------------3------------3------------3-----------|

e|------------------------------------------------------------------------------2-h-3-p-2------------|
B|---------1-h-3-3-3-3-3-3---------1-h-3-3-3-3-3-0-----------3-p-0------------3-----------3----------|
G|------0--0-----0-0-0-0-0------0--0-----0-0-0-0-0------------------0---0---2---------------2--------|
D|----2----2-----2-2-2-2-2----2----2-----2-2-2-2-0--------2-----------2----0------------------0------|
A|--3------3-----3-3-3-3-3--3------3-----3-3-3-3-0------2---------------------------------------------|
E|----------------------------------------------------0-----------------------------------------------|

e|---------------------------------------------------------------------------|
B|------------3--3-3-3-3-3--------3--3-3-3-3-3-------------------------------|
G|---------0--0--0-0-0-0-0------0-0--0-0-0-0-0-------------------------------|
D|-------2----2--2-2-2-2-2----2---2--2-2-2-2-2-------------------------------|
A|-----3------3--3-3-3-3-3--3-----3--3-3-3-3-3-------------------------------|
E|---------------------------------------------------------------------------|

Chorus is pretty straight forward just showing chords and the hammers and pull offs 
that are thrown in before the chord changes

     Gmaj#2     Gmaj#2       C         Cm9      Em          D           Cm9      Cm9
e|----3----------3-----------0----------0-------0-0---------2-h-3-p-2----0--------0--------|
B|----3----------3-----------1--h-3-----3-------0-3-p-0-----3------------3--------3--------|
G|----0----------0-----------0----------0-------0-0---------2------------0--------0--------|
D|----0----------0-----------2----------2-------2-2---------0------------2--------2--------|
A|----2----------2-----------3----------3-------2-2---------0------------3--------3--------|
E|----3----------3-----------0----------0-------0-0---------0------------0--------0--------|


************************************

| h   hammer-on
| p   pull-off


************************************
Добавлено: 15.11.2015
Другие материалы по этой песне:
  • Аккорды и текст

Страница создана 15.11.2015
http://primanota.ru/noah-guthrie/where-streets-have-no-name-chords.htm
Привет, Гость.
Предлагаем пройти революционный курс по гитаре.
Подарок от PrimaNota.Ru, забирай!