PrimaNota.ru - самый крупный в мире бесплатный архив песенных текстов, аккордов, табулатур и нот


Noah Gundersen - Twenty Something - таба, видео

Регистрация Запомнить меня
Войти через:  Facebook Google Twitter Vk Yandex Mail.ru

Noah Gundersen - Twenty Something - таба, видео

Печатать
Просмотров: 82
Noah Gundersen - Twenty Something
Tabbed by Austen Barraclough from Ledges (Deluxe Edition)

Standard tuning - no capo

Intro: (the second formation is played slightly delayed, listen to the song for the feel)
e|-----------------------------------------------------------------|
B|--1----------3-----5----8---------7-------7-------7-------7------|
G|-----0--------0-----------0---7-------7-------7-------7----------|
D|-------2-----------5------------0-------0-------0-------0--------|
A|--0-------------------------0-------0-------0-------0------------|
E|-----------------------------------------------------------------| (x2)


e|------------------------------------------------------------------------------|
B|--1----------3-----5----8---------7-------7-------7-------7-------7-------7---|
G|-----0--------0-----------0---7-------7-------7-------7-------7-------7-------|
D|-------2-----------5------------0-------0-------0-------0-------0-------0-----|
A|--0-------------------------0-------0-----------------------------------------|
E|--------------------------------------------7-------7-------0-------0---------| ...


Verses:
   Winter makes the most of all our...
   Am                              D
e|-------------------------------------------------------------------|
B|-------1-------1-------1-------1-------3-------3-------3-------3---|
G|---0-------0-------0-------0-------0-------0-------0-------0-------|
D|-----2-------2-------2-------2-------4-------4-------4-------4-----|
A|-0-------0-------0-------0-------0-------0-------0-------0---------|
E|-------------------------------------------------------------------|

   G                               C
e|-------------------------------------------------------------------|
B|-------0-------0-------0-------0-------1-------1-------1-------1---|
G|---0-------0-------0-------0-------0-------0-------0-------0-------|
D|-----0-------0-------0-------0-------2-------2-------2-------2-----|
A|---------------------------------3-------3-------3-------3---------|
E|-3-------3-------3-------3-----------------------------------------|


Pre-Chorus:
    no-thing feels like home                           anymore...
e|---------------------------------------------------------------------------------------|
B|--1----3----5----8----7------7-------7-------7-------7-------7-------7-------7-------7-|
G|--------------0----0-----7-------7-------7-------7-------7-------7-------7-------7-----|
D|--2----4----5---------0----0-------0-------0-------0-------0-------0-------0-------0---|
A|--0----0----0----0----0--------0-------------------------------------------------------|
E|---------------------------------------7-------7-------0-------0-------0-------0-------|
(hold the last formation for an extra 4 counts)


Chorus: (the picking pattern here changes around but is generally the same as the verses,
         here are the basic formations and you can pick them how you like)

    I wanna lie down, I wanna lie down, beside...         you
    C                 Am                Em                D
e|------|         e|------|         e|------|         e|------|
B|--5---|         B|--5---|         B|--5---|         B|--3---|
G|--0---|         G|--0---|         G|--0---|         G|--0---|
D|--5---|         D|--5---|         D|--5---|         D|--4---|
A|--3---|         A|--0---|         A|------|         A|--0---|
E|------|         E|------|         E|--0---|         E|------|


Outro: (same as the intro)
Добавлено: 06.06.2016
Другие материалы по этой песне:
  • Аккорды и текст

Страница создана 06.06.2016
http://primanota.ru/noah-gundersen/twenty-something-2-chords.htm
Привет, Гость.
Предлагаем пройти революционный курс по гитаре.
Подарок от PrimaNota.Ru, забирай!