PrimaNota.ru - самый крупный в мире бесплатный архив песенных текстов, аккордов, табулатур и нот


Noah Gundersen - Bag Of Glass - таба, видео

Регистрация Запомнить меня
Войти через:  Facebook Google Twitter Vk Yandex Mail.ru

Noah Gundersen - Bag Of Glass - таба, видео

Печатать
Просмотров: 151
-------------------------------------------------------------------------------
                             Bag of Glass - Noah Gundersen
-------------------------------------------------------------------------------
Tabbed by: Barragor


Tuning: Standard
Capo: 3

The hammer-ons in the C and A7 chords are not always played.

INTRO:

   C                 G                A7                F
e|---------------------------------------------------------------------------|
B|--------1-------1--------1-------1---------1-------1--------1-------1------|
G|------0-------0--------0-------0---------0-------0--------0-------0--------|
D|--0h2-(2)---2-(2)----0-(0)---0-(0)---0h2-(2)---2-(2)----3-(3)---3-(3)------|
A|-3--------3-------------------------0--------0-----------------------------|
E|-------------------3-------3--------------------------1-------1------------|

   C                 G                F              F
e|---------------------------------------------------------------------------|
B|--------1-------1--------1-------1--------1-------1--------1-------1-------|
G|------0-------0--------0-------0--------0-------0--------0-------0---------|
D|--0h2-(2)---2-(2)----0-(0)---0-(0)----3-(3)---3-(3)----3-(3)---3-(3)-------|
A|-3--------3----------------------------------------------------------------|
E|-------------------3-------3--------1-------1--------1-------1-------------|

  
VERSE:

   C                 G                A7                F                  3X
e|---------------------------------------------------------------------------|
B|--------1-------1--------1-------1---------1-------1--------1-------1------|
G|------0-------0--------0-------0---------0-------0--------0-------0--------|
D|--0h2-(2)---2-(2)----0-(0)---0-(0)---0h2-(2)---2-(2)----3-(3)---3-(3)------|
A|-3--------3-------------------------0--------0-----------------------------|
E|-------------------3-------3--------------------------1-------1------------|
  

   C                 G                F                G
e|---------------------------------------------------------------------------|
B|--------1-------1--------1-------1--------1-------1--------1-------1-------|
G|------0-------0--------0-------0--------0-------0--------0-------0---------|
D|--0h2-(2)---2-(2)----0-(0)---0-(0)----3-(3)---3-(3)----0-(0)---0-(0)-------|
A|-3--------3----------------------------------------------------------------|
E|-------------------3-------3--------1-------1--------3-------3-------------|


PRE-CHORUS:

   A7                Em               F                F*
e|-------------------------------------------------------------------------------|
B|-------1--------1--------0-------0--------1-------1--------1-------1-------1---|
G|-----0--------0--------0-------0--------0-------0--------1-------1-------1-----|
D|---2-(2)----2-(2)----2-(2)---2-(2)----3-(3)---3-(3)----3-(3)---3-(3)---3-(3)---|
A|-0--------0--------------------------------------------------------------------|
E|-------------------0-------0--------1-------1--------1-------1-------1---------|
 
   C                G                F                G
e|-------------------------------------------------------------------------------|
B|-------1-------1--------1-------1--------1-------1--------1-------1------------|
G|-----0-------0--------0-------0--------0-------0--------0-------0--------------|
D|---2-(2)---2-(2)----0-(0)---0-(0)----3-(3)---3-(3)----0-(0)---0-(0)------------|
A|-3-------3---------------------------------------------------------------------|
E|------------------3-------3--------1-------1--------3-------3------------------|

CHORUS:

   F        C        G        A7       F        C        G        G
e|---------------------------------------------------------------------------|
B|-------1--------1--------1--------1--------1--------1--------1--------1----|
G|-----0--------0--------0--------0--------0--------0--------0--------0------|
D|---3-(3)----2-(2)----0-(0)----2-(2)----3-(3)----2-(2)----0-(0)----0-(0)----|
A|----------3-----------------0-----------------3----------------------------|
E|-1-----------------3-----------------1-----------------3--------3----------|

   F        C        G        A7       F        G        F        F        F        G
e|---------------------------------------------------------------------------------------------|
B|-------1--------1--------1--------1--------1--------1--------1--------1--------1--------1----|
G|-----0--------0--------0--------0--------0--------0--------0--------0--------0--------0------|
D|---3-(3)----2-(2)----0-(0)----2-(2)----3-(3)----0-(0)----3-(3)----3-(3)----3-(3)----0-(0)----|
A|----------3-----------------0----------------------------------------------------------------|
E|-1-----------------3-----------------1--------3--------1--------1--------1--------3----------|

   
Second verse, pre-chorus, and chorus are basically the same, albeit with some slight variation.

NB: When Noah sings "So much hardship and nights all alone," the chord scheme changes to C G F G

FINAL PART:


   C                 G                   F                G                   C
e|--------------------------------------------------------------------------------|
B|--------1-------1--------1-------------------1-------1--------1-------------1---|
G|------0-------0--------0-------(0)-(0)-----0-------0--------0---------------0---|
D|--0h2-(2)---2-(2)----0-(0)--0h2---0------3-(3)---3-(3)----3-(3)----2--0-----2---|
A|-3--------3--------------------------------------------------------------0--3---|
E|-------------------3-----------3---3---1-------1--------3-------3---------------|


************************************

| /   slide up
| \   slide down
| h   hammer-on
| p   pull-off
| ~   vibrato
| +   harmonic
| x   Mute note
| b   Bend
| pb  Pre-bend
| br  Bend release
| pbr Pre-bend release
| brb Bend release bend

************************************
Добавлено: 14.08.2015
Другие материалы по этой песне:
  • Аккорды и текст

Страница создана 14.08.2015
http://primanota.ru/noah-gundersen/bag-of-glass-chords.htm
Привет, Гость.
Предлагаем пройти революционный курс по гитаре.
Подарок от PrimaNota.Ru, забирай!