PrimaNota.ru - самый крупный в мире бесплатный архив песенных текстов, аккордов, табулатур и нот


Noah And The Whale - Just Me Before We Met - текст песни, бас-таба, видео

Регистрация Запомнить меня
Войти через:  Facebook Google Twitter Vk Yandex Mail.ru

Noah And The Whale - Just Me Before We Met - текст песни, бас-таба, видео

Печатать
Просмотров: 124
Уроки эстрадного вокала в Санкт-Петербурге
Авторы музыки: Charlie Fink
Авторы текста: Charlie Fink
Intro and Verse 1

G------------------------------------------------------------------------------------|
D------------------------------------------------------------------------------------|
A -----------------------------------------------------------------------------------|
E 7-7-7--7-7-7---7-7-7--7-7-7---7-6-4--7-7-7---7-6-4--7-7-7---0-0-0--7-7-7---0-0-0---|

G----------------------------------------|
D----------------------------------------|
A----------------------------------------|
E-7-7-7---3-2-0--7-7-7---3-2-0--7-7-7----|

Break and Verse 2
G-----------------------------------------------------------------------------------|
D-----------------------------------------------------------------------------------|
A-----------------------------------------------------------------------------------|
E 3-2-0--7-7-7---7-6-4--7-7-7---7-6-4--7-7-7---0-0-0--7-7-7---0-0-0--7-7-7---7-6-4--|


G-------------------------|
D-------------------------|
A-------------------------|
E-7-7-7---7-6-4--7-7-7----|

Chorus
G-----------------------------------------------------------------------|
D-----------------------------------------------------------------------|
A-----------------------------------------------------------------------|  X3
E 0-0-0-0-7-7-7-7-4-4-4-4-0-0-0-0-4-4-4-4-0-0-0-0-7-7-7-7-7-7-7-7-------|

Verse 3
G-----------------------------|
D-----------------------------|
A-----------------------------|
E 3-2-0--7-7-7---3-2-0--7-7-7-|

Chorus
G-----------------------------------------------------|
D-----------------------------------------------------|
A-----------------------------------------------------| X4
E 0-0-0-0-7-7-7-7-4-4-4-4-0-0-0-0-4-4-4-4-0-0-0-0-----|

Outro
G----------------------------------------------------|
D----------------------------------------------------|
A----------------------------------------------------|
E (first time:7-7-7)--3-2-0--7-7-7---3-2-0--7-7-7----| X2
Добавлено: 15.10.2013
Другие материалы по этой песне:

Страница создана 03.03.2012
http://primanota.ru/noah-and-the-whale/just-me-before-we-met-chords.htm
Привет, Гость.
Предлагаем пройти революционный курс по гитаре.
Подарок от PrimaNota.Ru, забирай!