PrimaNota.ru - самый крупный в мире бесплатный архив песенных текстов, аккордов, табулатур и нот


No Warning - Short Fuse - текст песни, таба, видео

Регистрация Запомнить меня
Войти через:  Facebook Google Twitter Vk Yandex Mail.ru

No Warning - Short Fuse - текст песни, таба, видео

Печатать
Просмотров: 136
No Warning
Short Fuse
Tabbed By Stevo C

~ let ring
. palm mute
x dampen strings
/ slide

Intro1
Eb-----------------------|
Bb-----------------------|
Gb-----------------------|
Db-3----3----------------|
Ab-1-2~-1-2~-(pickslide)-|
Db---2~---2~-(pickslide)-|

Intro2
Eb----------------------------------------------------------------|
Bb----------------------------------------------------------------|
Gb----------------------------------------------------------------|
Db-3----------------3----------------3----------------------------|
Ab-1-2-2-4-5-7-5-2--1-2-2-5-7-5-2-2--1-2-2-4-5-7-5-2-2-2-2-5/4-1~-|
Db---2-2-4-5-7-5-2----2-2-5-7-5-2-2----2-2-4-5-7-5-2-2-2-2-5/4-1~-|
PM                                                     . .

Eb-----------------------------------------------------------------------|
Bb-----------------------------------------------------------------------|
Gb-----------------------------------------------------------------------|
Db-3----------------3----------------3-----------------------------------|
Ab-1-2-2-4-5-7-5-2--1-2-2-5-7-5-2-2--1-2-2-4-5-7-5-2-2-2-2-5/4-1~-1~~~~~-|
Db---2-2-4-5-7-5-2----2-2-5-7-5-2-2----2-2-4-5-7-5-2-2-2-2-5/4-1~-1~~~~~-|
PM                                                     . .

Verse (2x)
Eb------------------------------------------------------------------------------------------|
Bb------------------------------------------------------------------------------------------|
Gb------------------------------------------------------------------------------------------|
Db------------------------------------------------------------------------------------------|
Ab-2-2-2-5/4-2-2-2-4/5/4/5-2-2-2-5/4-2-2-2-9/8--2-2-2-5/4-2-2-2-4/5/4/5-2-2-2-5/4-2-2-2-9~~-|
Db-2-2-2-5/4-2-2-2-4/5/4/5-2-2-2-5/4-2-2-2-9/8--2-2-2-5/4-2-2-2-4/5/4/5-2-2-2-5/4-2-2-2-9~~-|
PM   . .       . .           . .       . .        . .       . .           . .       . .

Chorus
Eb-------------------------------------------------|
Bb-------------------------------------------------|
Gb-------------------------------------------------|
Db-------------------------------------------------|
Ab-2~x-9-8~x-8-7~x-7-5-7-5-2~x-9-8~x-8-5~x-5-7-5-4-|
Db-2~x-9-8~x-8-7~x-7-5-7-5-2~x-9-8~x-8-5~x-5-7-5-4-|

Eb-----------------------------------------------|
Bb-----------------------------------------------|
Gb-----------------------------------------------|
Db-----------------------------------------------|
Ab-2~x-9-8~x-8-5~x-5-7-5-2~x-9-8~x-8-5~x-5-7~-5~-|
Db-2~x-9-8~x-8-5~x-5-7-5-2~x-9-8~x-8-5~x-5-7~-5~-|

Verse (2x)
Eb------------------------------------------------------------------------------------------|
Bb------------------------------------------------------------------------------------------|
Gb------------------------------------------------------------------------------------------|
Db------------------------------------------------------------------------------------------|
Ab-2-2-2-5/4-2-2-2-4/5/4/5-2-2-2-5/4-2-2-2-9/8--2-2-2-5/4-2-2-2-4/5/4/5-2-2-2-5/4-2-2-2-9~~-|
Db-2-2-2-5/4-2-2-2-4/5/4/5-2-2-2-5/4-2-2-2-9/8--2-2-2-5/4-2-2-2-4/5/4/5-2-2-2-5/4-2-2-2-9~~-|
PM   . .       . .           . .       . .        . .       . .           . .       . .

Chorus
Eb-------------------------------------------------|
Bb-------------------------------------------------|
Gb-------------------------------------------------|
Db-------------------------------------------------|
Ab-2~x-9-8~x-8-7~x-7-5-7-5-2~x-9-8~x-8-5~x-5-7-5-4-|
Db-2~x-9-8~x-8-7~x-7-5-7-5-2~x-9-8~x-8-5~x-5-7-5-4-|

Eb-----------------------------------------------||
Bb-----------------------------------------------||                       Play This
Gb-----------------------------------------------||                      First Time
Db-----------------------------------------------||
Ab-2~x-9-8~x-8-5~x-5-7-5-2~x-9-8~x-8-5~x-5-7~-5~-||
Db-2~x-9-8~x-8-5~x-5-7-5-2~x-9-8~x-8-5~x-5-7~-5--||                        \    /
                                                                          \  /
Interlude(2x)                                                              \/
Eb----------------------------------------------------------------------||---||
Bb----------------------------------------------------------------------||---||
Gb----------------------------------------------------------------------||---||
Db----------------------------------------------------------------------||---||
Ab-2-2-2-2/9/8-8-8-8/5-5-5-5/7-7-7/5/2-2-2-2/9/8-8-8-5/7-7-7-5-5/7-7-7-5||-2-||
Db-2-2-2-2/9/8-8-8-8/5-5-5-5/7-7-7/5/2-2-2-2/9/8-8-8-5/7-7-7-5-5/7-7-7-5||-2-||
PM   . .       . .     . .     .       . .       . .

Play this second time on interlude
Eb---------------------|
Bb---------------------|
Gb---------------------|
Db---------------------|
Ab-2~~~~~~~-2~~~~~-2-2-|
Db-2~~~~~~~-2~~~~~-2-2-|

Outro(2x)   let last chord ring out on second time around
Eb-----------------------------------------------------------------------------------------------------|
Bb-----------------------------------------------------------------------------------------------------|
Gb-----------------------------------------------------------------------------------------------------|
Db-----------------------------------------------------------------------------------------------------|
Ab-4-5-4-3-2-2-2-9-9-9-8-7-7-7-7-7-7-2-2-2-9-9-9-8-5-7-5-5-2-2-9-9-9-8-7-7-7-7-7-2-2-9-9-9-8-5-7-5-5-2-|
Db-4-5-4-3-2-2-2-9-9-9-8-7-7-7-7-7-7-2-2-2-9-9-9-8-5-7-5-5-2-2-9-9-9-8-7-7-7-7-7-2-2-9-9-9-8-5-7-5-5-2-|

I'm pretty shure that this is atleast 90% rite if u have ne corrections e-mail me or 
them and i will modify
the tab.
Please rate!!
Добавлено: 28.07.2012
Вам также может быть интересно:
Другие материалы по этой песне:
  • Аккорды и текст

Страница создана 12.07.2012
http://primanota.ru/no-warning/short-fuse-chords.htm
Привет, Гость.
Предлагаем пройти революционный курс по гитаре.
Подарок от PrimaNota.Ru, забирай!