PrimaNota.ru - самый крупный в мире бесплатный архив песенных текстов, аккордов, табулатур и нот


No Use For A Name - The Daily Grind - текст песни, таба, бас-таба, видео

Регистрация Запомнить меня
Войти через:  Facebook Google Twitter Vk Yandex Mail.ru

No Use For A Name - The Daily Grind - текст песни, таба, бас-таба, видео

Печатать
Просмотров: 109
-------------------------------------------------------------------------------
			     the daily grind - no use for a name
-------------------------------------------------------------------------------
Tabbed by: soufex
Email: peroxidebox@aol.com

Tuning: standard

this is super easy awesome, and i love this song to bits. <3 for tony sly.

intro/riff/thing:

e|-------------------------------------------------|
B|---3-5-7-5-8-7-5-7-5-3---------------------------|
G|-4-----------------------------------------------|
D|-------------------------------------------------|
A|-------------------------------------------------|
E|-------------------------------------------------|

with this for the last one...

e|-------------------------------------------------|
B|---3-5-7-5-12------------------------------------|
G|-4-----------------------------------------------|
D|-------------------------------------------------|
A|-------------------------------------------------|
E|-------------------------------------------------|

this is just the chord progression, you can figure out the timing for yourself if you 
to the song.

verse:

e|-------------------------------------------------|
B|-------------------------------------------------|
G|-9-----------------------------------------------|
D|-9----5----7----9--------------------------------|
A|-7----5----7----9--------------------------------|
E|------3----5----7--------------------------------|

e|-------------------------------------------------|
B|-------------------------------------------------|
G|-9--------------5--------------------------------|
D|-9----5----7----5--------------------------------|
A|-7----5----5----3--------------------------------|
E|------3----5-------------------------------------|


take it to the bridge... times two.

e|-------------------------------------------------|
B|-------------------------------------------------|
G|-5---9\7-----------------------------------------|
D|-5---9\7-----------------------------------------|
A|-3---7\5-----------------------------------------|
E|-------------------------------------------------|

chorus (x2):

e|-------------------------------------------------|
B|-------------------------------------------------|
G|-------------------------------------------------|
D|-9----4----5-------------------------------------|
A|-9----4----5-------------------------------------|
E|-7----2----3-------------------------------------|

then it's...

verse
bridge
chorus x2 and then this x2, can i get another key?

e|--------------------------------------------------|
B|--------------------------------------------------|
G|-6------------------------------------------------|
D|-6----6----7--------------------------------------|
A|-4----6----7--------------------------------------|
E|------4----5--------------------------------------|


and then there's a neat little breakdown! i think i got it right, anyhows.

e|-----------------------------------|
B|---4/5-7-7-9/10--10\7/9\5/7\4/5----|
G|---4/5-7-7-9/10--10\7/9\5/7\4/5----|
D|-7-2/3-5-5-7/8----8\5/7\3/5\2/3-7--|
A|-7------------------------------7--|
E|-5------------------------------5--|


| /  slide up
| \  slide down
| h  hammer-on
| p  pull-off
| ~  vibrato
| +  harmonic
| x  Mute note
===============================================================================
Добавлено: 09.06.2013
Другие материалы по этой песне:

Страница создана 13.03.2012
http://primanota.ru/no-use-for-a-name/the-daily-grind-chords.htm
Привет, Гость.
Предлагаем пройти революционный курс по гитаре.
Подарок от PrimaNota.Ru, забирай!