PrimaNota.ru - самый крупный в мире бесплатный архив песенных текстов, аккордов, табулатур и нот


No Use For A Name - Stunt Double - аккорды и текст, таба, видео

Регистрация Запомнить меня
Войти через:  Facebook Google Twitter Vk Yandex Mail.ru

No Use For A Name - Stunt Double - аккорды и текст, таба, видео

Печатать
Просмотров: 146
Stunt Double
No Use For A Name
-------------------------------------------------------------------------------
                             STUNT DOUBLE - No Use For A Name
-------------------------------------------------------------------------------
Tabbed by:frank_pierce
Email:pb_platypus@yahoo.com

Tuning:standard
capo on 1st fret (much easier to play that way)

Intro: play twice

    Em    Em/D  C    C/D    G         Dadd9 D Dsus4
e|---------------------------------------0-2-3-2---------------------------|
B|--0----0-3-0--1----1-3-1--0---0-3-0---3--3-3-3---------------------------|
G|----0-----------0-----------0--------2-----------------------------------|
D|-----2-----------2------------------0------------------------------------|
A|--2------2-2--3------3-3-----2-------------------------------------------|
E|--------------------------3----------------------------------------------|

First verse: acoustic part, pick the chords

 Em            C
Here's another drink to cover
G             D
every word you say
Em               C
fine excuses, it wasn't you then
G          D
sorry, my mistake

Chorus: Distorsion, power chords

C5              G5
Here comes the part
D5
where the stunt double plays
C5               G5
you ask somebody else
D5
to take the fall and blame

Second Verse: palm muted 

E5
Building bridges
C5
playing with matches
G5               D5
burning yourself down
E5
find the exit
C5
before they get it
G5             D5
take the easy way out

C5            G5
So here comes the part
D5
where your stunt double plays
C5          G5
you have somebody else
D5
I think we imitate

C5              G5
Here comes the part
D5
where the stunt double plays
C5               G5
you ask somebody else
D5
to take the fall and blame

outro:
Em C5 D5 C5 G5

Enjoy!

| /  slide up
| \  slide down
| B  hammer-on
| p  pull-off
| ~  vibrato
| +  harmonic
| x  Mute note
===============================================================================
Добавлено: 02.06.2012
Другие материалы по этой песне:
  • Аккорды и текст

Страница создана 26.02.2012
http://primanota.ru/no-use-for-a-name/stunt-double-chords.htm
Привет, Гость.
Предлагаем пройти революционный курс по гитаре.
Подарок от PrimaNota.Ru, забирай!