PrimaNota.ru - самый крупный в мире бесплатный архив песенных текстов, аккордов, табулатур и нот


No Use For A Name - Coming too close - аккорды и текст, таба, бас-таба, видео

Регистрация Запомнить меня
Войти через:  Facebook Google Twitter Vk Yandex Mail.ru

No Use For A Name - Coming too close - аккорды и текст, таба, бас-таба, видео

Печатать
Просмотров: 101
Coming too close
No Use For A Name
Coming Too Close (Acoustic)
No Use For A Name


I'm almost certain that this is 100% correct
Have fun!


Intro

C G6 F5 Em Dm C G6 F5


Verse

C                                G6       F5   Em
There was a time when you would come and go
Dm                          C   G6    F5
  Now there's no time left to react
Em                               F5 
   Just as it starts to heal in comes a bitter end
              C                              G6
Well you were already to leave my side and then...


Chorus
                    F5                C
You're coming too close and I can't pretend
                   G6                 Em 
That I'll pick you up or let you come in again
                           F5                    C
We've been through this before, so please understand
                       G6                         Bb5      A
That nothing in this heart can save you from the pain you seek
        F5                  G5~
If you pick up your phone please don't call on me


Fill

C G6 F5 Em Dm C G6 F5 


Verse

   C                         G6    F5   Em
No one can save you from the undertow
Dm                     C       G6    F5
  Nobody can blame us for the past
Em                            F5 
Just as you started to think "everything's alright"
               C                                    G6
You showed us surely that your tenth time was your last


Chorus
                    F5                C 
You're coming too close and I can't pretend
                   G6                 Em 
That I'll pick you up or let you come in again
                           F5                    C
We've been through this before, so please understand
                       G6                         Bb5      A
That nothing in this heart can save you from the pain you seek
        F5                  G5
If you pick up your phone please don't call on me
Bridge
F                    G6                    
Yesterday I saw you falling to the ground
Em                                   A5    G5   F5
   Seems like things get worse when no one is around
          C5
It's not OK


Solo
e|---------------------------------|
B|------------10~------------------|
G|--9-12~---9------12/-------------|
D|----------------------10-9-10v~--|
A|---------------------------------|
E|---------------------------------|

e|---------------------------------------------------|
B|---------------------------------------------------|
G|--10-10-10~---10-10-10~--10\12--10-9-9~--10p9------|
D|----------------------------------------------12~--|
A|---------------------------------------------------|
E|---------------------------------------------------|

e|-------------------------------------------------------------------|
B|-------------------------------------------------------------------|
G|-------------------------------------------------------------------|
D|--------7-9-10~---10-10-10~---10-10-10~---10/12-10-9-9~--10p9------|
A|--8-10--------------------------------------------------------12~--|
E|-------------------------------------------------------------------|

e|--------------------------------------|
B|--------------------------------------|
G|--------------------------------------|
D|-----------------------------9-10-9~--|
A|--12-12-12~---12-12-12~---12----------|
E|--------------------------------------|


Chorus
                    F5                C 
You're coming too close and I can't pretend
                   G6                 Em 
That I'll pick you up or let you come in again
                           F5                    C
We've been through this before, so please understand
                       G6                         Bb5      A
That nothing in this heart can save you from the pain you seek
        F5                  G5
If you pick up your phone please don't call on me
Добавлено: 17.12.2013
Другие материалы по этой песне:

Страница создана 21.02.2012
http://primanota.ru/no-use-for-a-name/coming-too-close-chords.htm
Привет, Гость.
Предлагаем пройти революционный курс по гитаре.
Подарок от PrimaNota.Ru, забирай!