PrimaNota.ru - самый крупный в мире бесплатный архив песенных текстов, аккордов, табулатур и нот


No Trend - Reality Breakdown - таба, видео

Регистрация Запомнить меня
Войти через:  Facebook Google Twitter Vk Yandex Mail.ru

No Trend - Reality Breakdown - таба, видео

Печатать
Просмотров: 91
No Trend - Reality Breakdown Guitar TAB. Youtube: Jimsters (submitted by)

This is the tab for the song Reality Breakdown by No Trend, it is a very easy song,
 much easier than it sounds.
 It is simply all power chords, however,
 do not be afraid to hit all the extra strings to give it a noisey sound.
 Play kind of poorly.
 I personally when playing the power chords for
 this song rest my ring finger and pinky finger down on all the extra strings similar to 
a barre chord.

 for example...


Instead of a normal power chord like so....

E|----------------------------|
B|----------------------------|
G|----------------------------|
D| -7-------------------------|
A|--7-------------------------|
E|--5-------------------------|


I would play the chord like this...
E|--7-------------------------|
B|--7-------------------------|
G|--7-------------------------|
D| -7-------------------------|
A|--7-------------------------|
E|--5-------------------------|


Either playing all the strings or playing them open, regardless, here is the tab.
E|-----------------------------------------------|
B|-----------------------------------------------|
G|-----------------------------------------------|
D| -7----------6----------5-----------6----------|
A|--7--X14-----6--X14-----5--X14------6----X14---|
E|--5----------4----------3-----------4----------|

the end of the song kind of breaks down into broken sloppy playing,
 so I would just get sloppy with the same chords.


It is all power chords played (from what I can hear) 14 times each.
 If you don't think it's 14 that's fine,
just play with the song how you feel sounds right, because it's not hard at all, but I 
think it is 14.
 I know at least the chords are correct. Anyway, have fun.
Добавлено: 28.08.2015
Другие материалы по этой песне:
  • Аккорды и текст

Страница создана 28.08.2015
http://primanota.ru/no-trend/reality-breakdown-chords.htm
Привет, Гость.
Предлагаем пройти революционный курс по гитаре.
Подарок от PrimaNota.Ru, забирай!