PrimaNota.ru - самый крупный в мире бесплатный архив песенных текстов, аккордов, табулатур и нот


No Te Va Gustar - Dejame Bailar Con Vos - бас-таба, видео

Регистрация Запомнить меня
Войти через:  Facebook Google Twitter Vk Yandex Mail.ru

No Te Va Gustar - Dejame Bailar Con Vos - бас-таба, видео

Печатать
Просмотров: 84
Новый альбом группы 'Черный Кузнец' по культовому сериалу 'Сверхъестественное'!
G------------------/-----------------------
D-----0--2?0x------/------0--2-0x----------
A?2-x----------2---/--2-x----------2-------
E------------------/-----------------------

?YA LO SE SOY UN ILUSO...?


G--------4--3--2---------------------------
D-----4---------4--2----4-2----------------
A--2------------------------4-5-2----------
E------------------------------------------

CORO

G--------4--3--2---------------------------
D-----4---------4--2----4-2----------------
A--2------------------------4-5-2----------
E------------------------------------------


EL FINAL ES ASI

G------------------------------------------
D------------------------------------------        x2
A--2--2-2-2----4--4-4-4---5--5-5-5----7--9-
E------------------------------------------


La cancion es facil solo hay que llevarle el ritmo
Alguna consulta , correccion : mgcm@
Добавлено: 26.11.2014
Другие материалы по этой песне:
  • Аккорды и текст

Страница создана 26.11.2014
http://primanota.ru/no-te-va-gustar/dejame-bailar-con-vos-chords.htm
Привет, Гость.
Предлагаем пройти революционный курс по гитаре.
Подарок от PrimaNota.Ru, забирай!