PrimaNota.ru - самый крупный в мире бесплатный архив песенных текстов, аккордов, табулатур и нот


No One - Nothing - текст песни, таба, видео

Регистрация Запомнить меня
Войти через:  Facebook Google Twitter Vk Yandex Mail.ru

No One - Nothing - текст песни, таба, видео

Печатать
Просмотров: 77
-------------------------------------------------------------------------------
                             SONG NAME - Band Name
-------------------------------------------------------------------------------
Tabbed by: Unknown
E-mail:

Tuning: Drop D

   Intro:
e|---------------------------------------------------------------------------|
B|---------------------------------------------------------------------------|
G|---------------------------------------------------------------------------|
D|---------------------------------------------------------------------------|
A|--0----5~--------0----5~--------0----5~--------0----5~---------------------| X2
D|--7----0~--------7----0~--------7----0~--------7----7~---------------------|

  Bridge:
e|---------------------------------------------------------------------------|
B|---------------------------------------------------------------------------|
G|---------------------------------------------------------------------------|
D|---------------------------------------------------------------------------|
A|---------------------------------------------------------------------------|
D|------/pick\-----------------------------------Drums-----------------------|


   Main Riff:

   Guitar 1 (Guitar 2 = X2)
e|---------------------------------------------------------------------------|
B|---------------------------------------------------------------------------|
G|---------------------------------------------------------------------------|
D|---------------------------------------------------------------------------|
A|--0---------------------------------0--------------------------------------| X4
D|--0-00-3b0-0-5b0-0-2b0-3(pinch)-----0-00-3b0-0-5b0-0-2b0-33332222----------|
      **     *     *                    **     *     *
   Guitar 2
e|---------------------------------------------------------------------------|
B|---------------------------------------------------------------------------|
G|---------------------------------------------------------------------------|
D|---------------------------------------------------------------------------|
A|--0---3b0---5b0---2b0-3(pinch)------0---3b0---5b0---2b0-33332222-----------| X2
D|--0-00----0-----0-------------------0-00----0-----0------------------------|
      **    *     *                     **    *     *
    Verse:
e|---------------------------------------------------------------------------|
B|---------------------------------------------------------------------------|
G|---------------------------------------------------------------------------|
D|---------------------------------------------------------------------------|
A|--0-000-0-0-|-0-000-0-0-|-0-000-0-0-|-0-000-0-0----------------------------|
D|--0-000-0-0-|-0-000-0-0-|-0-000-0-0-|-0-000-0-0----------------------------|
      *** * *     *** * *     *** * *     *** * *
e|--------------------------------------------------------------------------------------|
B|--------------------------------------------------------------------------------------|
G|--------------------------------------------------------------------------------------|
D|--------------------------------------------------------------------------------------|
A|--0-000-1\2/1-3\4/1-|--0-000-1\2/1-3\4/1-|--0-000-1\2/1-3\4/1-|--0-000-1\2/1-3\4\8----|
D|--0-000-1\2/1-3\4/1-|--0-000-1\2/1-3\4/1-|--0-000-1\2/1-3\4/1-|--0-000-1\2/1-3\4\8----|
      ***                  ***                  ***                  ***
e|---------------------------------------------------------------------------------|
B|---------------------------------------------------------------------------------|
G|---------------------------------------------------------------------------------|
D|---------------------------------------------------------------------------------|
A|--7-7-7-7------------------------------------------------------------------------|
D|--7-7-7-7------------------------------------------------------------------------|
    * * * *
   Chorus:
e|---------------------------------------------------------------------------|
B|---------------------------------------------------------------------------|
G|---------------------------------------------------------------------------|
D|---------------0~----------------------------------------------------------|
A|--5-555555-55--0~--2222----------------------------------------------------| X3
D|--7-777777-33--0~------33332222--------------------------------------------|

e|---------------------------------------------------------------------------|
B|---------------------------------------------------------------------------|
G|---------------------------------------------------------------------------|
D|---------------5--7--8-----------------------------------------------------|
A|--5-555555-55--2--3--5-----------------------------------------------------|
D|--7-777777-77--2--3--5-----------------------------------------------------|

e|---------------------------------------------------------------------------|
B|---------------------------------------------------------------------------|
G|---------------------------------------------------------------------------|
D|---------------------------------------------------------------------------|
A|--0----5~--------0----5~--------0----5~--------0----5~---------------------|
D|--7----0~--------7----0~--------7----0~--------7----0~---------------------|

************************************

This is not an actual song yet

************************************
Добавлено: 22.12.2015
Другие материалы по этой песне:
  • Аккорды и текст

Страница создана 31.03.2012
http://primanota.ru/no-one/nothing-chords.htm
Привет, Гость.
Предлагаем пройти революционный курс по гитаре.
Подарок от PrimaNota.Ru, забирай!