PrimaNota.ru - самый крупный в мире бесплатный архив песенных текстов, аккордов, табулатур и нот


No One Is Innocent - Revolutioncom - бас-таба, видео

Регистрация Запомнить меня
Войти через:  Facebook Google Twitter Vk Yandex Mail.ru

No One Is Innocent - Revolutioncom - бас-таба, видео

Печатать
Просмотров: 85
Уроки эстрадного вокала в Санкт-Петербурге
VERSE 1
G|-----------------------------------------------------------------|
D|-----------------------------------------------------------------|
A|-------------------------7-7-7-7-8-8-8-8-------------------------|X3
E|-1-1-1-1-5-5-5-5-8-8-8-8-----------------5-5-5-5-8-8-8-8-0-0-0-0-|

G|-----------------------------------------------------------------|
D|-----------------------------------------------------------------|
A|-------------------------7-7-7-7-8-8-8-8-------------------------|X1
E|-1-1-1-1-5-5-5-5-8-8-8-8-----------------5-5-5-5-8-8-8-8-8-/-12-\|


CHORUS 1
G|-----------------------------------------------------------------|
D|-----------------------------------------------------------------|
A|-------------------------7-7-7-7-8-8-8-8-------------------------|X3
E|-1-1-1-1-5-5-5-5-8-8-8-8-----------------5-5-5-5-8-8-8-8-0-0-0-0-|

G|----------------------------------------------------------------------------|
D|----------------------------------------------------------------------------|
A|-------------------------7-7-7-7-8-8-8-8-12-12-12-12-15-15-15-15-17/19\-----|X1
E|-1-1-1-1-5-5-5-5-8-8-8-8----------------------------------------------------|

VERSE 2
G|-----------------------------------------------------------------|
D|-----------------------------------------------------------------|
A|-------------------------7-7-7-7-8-8-8-8-------------------------|X3
E|-1-1-1-1-5-5-5-5-8-8-8-8-----------------5-5-5-5-8-8-8-8-0-0-0-0-|

G|-----------------------------------------------------------------|
D|-----------------------------------------------------------------|
A|-------------------------7-7-7-7-8-8-8-8-------------------------|X1
E|-1-1-1-1-5-5-5-5-8-8-8-8-----------------5-5-5-5-8-8-8-8-8-/-12-\|

CHORUS 2
G|-----------------------------------------------------------------|
D|-----------------------------------------------------------------|
A|-------------------------7-7-7-7-8-8-8-8-------------------------|X4
E|-1-1-1-1-5-5-5-5-8-8-8-8-----------------5-5-5-5-8-8-8-8-0-0-0-0-|

SOLO

G|---------------------------------|
D|---------------------------------|
A|---------------------------------|X4
E|-1-1-1-1-5-5-5-5-1-1-1-1-0-0-0-0-|

G|-------------------------------------------------------------|
D|-------------------------------------------------------------|
A|-------------------------------------------------------------|X1
E|-1-1-1-1-5-5-5-5-1-1-1-1-0-00---0-00---0-00---0000/12121212\-|

CHORUS 3
G|-----------------------------------------------------------------|
D|-----------------------------------------------------------------|
A|-------------------------7-7-7-7-8-8-8-8-------------------------|X4
E|-1-1-1-1-5-5-5-5-8-8-8-8-----------------5-5-5-5-8-8-8-8-0-0-0-0-|

OUTRO

G|-----------------------------------------------------------------|
D|-----------------------------------------------------------------|
A|-------------------------7-7-7-7-8-8-8-8-------------------------|X3
E|-1-1-1-1-5-5-5-5-8-8-8-8-----------------5-5-5-5-8-8-8-8-0-0-0-0-|

G|----------------------------------------------------------------------------|
D|----------------------------------------------------------------------------|
A|-------------------------7-7-7-7-8-8-8-8-12-12-12-12-15-15-15-15-17/19\-----|X1
E|-1-1-1-1-5-5-5-5-8-8-8-8----------------------------------------------------|


Добавлено: 26.07.2013
Другие материалы по этой песне:
  • Аккорды и текст

Страница создана 26.07.2013
http://primanota.ru/no-one-is-innocent/revolutioncom-chords.htm
Привет, Гость.
Предлагаем пройти революционный курс по гитаре.
Подарок от PrimaNota.Ru, забирай!