PrimaNota.ru - самый крупный в мире бесплатный архив песенных текстов, аккордов, табулатур и нот


No One Is Innocent - Henry Serial Killer - бас-таба, видео

Регистрация Запомнить меня
Войти через:  Facebook Google Twitter Vk Yandex Mail.ru

No One Is Innocent - Henry Serial Killer - бас-таба, видео

Печатать
Просмотров: 57
Авторы музыки: Pascal Koziareck, Marc Gulbenkian, Jérôme Suzat-Plessy, Guy Perrot, Thierry Molinier
Авторы текста: Pascal Koziareck, Marc Gulbenkian, Jérôme Suzat-Plessy, Guy Perrot, Thierry Molinier
INTRO
G|-----------------------------------------|
D|---------5-------------------5----7-5----|
A|-5h7-7-7---7-X5-7----5h7-7-7---7------7--|
E|------------------0----------------------|


MAIN RIFF
G|----------------|
D|----------------|
A|-7-7------0h5---|
E|-----6665-------|

or

G|--------------------|
D|--------------------|
A|-7/8\7-7------0h5---|
E|---------6665-------|

or

G|----------------|
D|----------------|
A|-777------0h5---|
E|-----6665-------|


during chorus add
G|--------------------------------------------------|
D|--------------------------------------------------|
A|-777777779999999910101010101010101212121212121212-|
E|--------------------------------------------------|
                                   
Добавлено: 03.06.2013
Другие материалы по этой песне:
  • Аккорды и текст

Страница создана 03.06.2013
http://primanota.ru/no-one-is-innocent/henry-serial-killer-chords.htm
Привет, Гость.
Предлагаем пройти революционный курс по гитаре.
Подарок от PrimaNota.Ru, забирай!