PrimaNota.ru - самый крупный в мире бесплатный архив песенных текстов, аккордов, табулатур и нот


No One Is Innocent - Djihad Propaganda - таба, видео

Регистрация Запомнить меня
Войти через:  Facebook Google Twitter Vk Yandex Mail.ru

No One Is Innocent - Djihad Propaganda - таба, видео

Печатать
Просмотров: 32
Song: Djihad Propaganda
Band: No One Is Innoncent
Album: Propaganda
Year: 2015
Tabber: beranger80@hotmail.com
Tunning: D drop



Intro (0:00)

e----------------------------|
b----------------------------|
g----------------------------|
d----------------------------|
a----------------------------|
d--3--3--3--3-3--3-3-3-3--3--| x4



Intro (0:13)

e--------------------------------|
b--------------------------------|
g--------------------------------|
d--3--3--3--3--x-x--x-x--3--3-3--|
a--3--3--3--3--x-x--x-x--3--3-3--|
d--3--3--3--3--x-x--x-x--3--3-3--| x4



Verse (0:27)

e--------------------|
b--------------------|
g--------------------|
d--------------------|
a--------------------|
d--1/////3\\\\\\\\1--|

e--------------------------------|
b--------------------------------|
g--------------------------------|
d--3--3--3--3--x-x--x-x--3--3-3--|
a--3--3--3--3--x-x--x-x--3--3-3--|
d--3--3--3--3--x-x--x-x--3--3-3--| x2



Verse (0:40)

e--------------------|
b--------------------|
g--------------------|
d--------------------|
a--------------------|
d--1/////3\\\\\\\\1--|

e--------------------------------|
b--------------------------------|
g--------------------------------|
d--3--3--3--3--x-x--x-x--3--3-3--|
a--3--3--3--3--x-x--x-x--3--3-3--|
d--3--3--3--3--x-x--x-x--3--3-3--| x2



Verse (0:54)

e--------------------|
b--------------------|
g--------------------|
d--------------------|
a--------------------|
d--1/////3\\\\\\\\1--|

e--------------------------------|
b--------------------------------|
g--------------------------------|
d--3--3--3--3--x-x--x-x--3--3-3--|
a--3--3--3--3--x-x--x-x--3--3-3--|
d--3--3--3--3--x-x--x-x--3--3-3--| x2



Verse (1:07)

e--------------------|
b--------------------|
g--------------------|
d--------------------|
a--------------------|
d--1/////3\\\\\\\\1--|



Prechorus (1:15)

e-------------------|
b-------------------|
g-------------------|
d--3--3--3--3--6-8--|
a--3--3--3--3--6-8--|
d--3--3--3--3--6-8--| x4



Bridge (1:30)

F



Bridge (1:44)

e----------------|
b----------------|
g----------------|
d-------3--------|
a---------6------|
d--3-3------6-3--|



Prechorus (1:54)

e----------------|
b----------------|
g----------------|
d-------3--------|
a---------6------|
d--3-3------6-3--|



Chorus (1:57)

e--------------|
b--------------|
g-----10--8----|
d--3--10--8-6--|
a--3---8--6-6--|
d--3--------6--| x16



Bridge (2:24)

e--------------------------------|     e-----------|
b--------------------------------|     b-----------|
g--------------------------------|     g------<4>--|
d--3--3--3--3--x-x--x-x--3--3-3--|     d--<5>------|
a--3--3--3--3--x-x--x-x--3--3-3--|     a-----------|
d--3--3--3--3--x-x--x-x--3--3-3--| x4  d-----------| x4



Verse (2:37)

e--------------------|
b--------------------|
g--------------------|
d--------------------|
a--------------------|
d--1/////3\\\\\\\\1--|

e--------------------------------|
b--------------------------------|
g--------------------------------|
d--3--3--3--3--x-x--x-x--3--3-3--|
a--3--3--3--3--x-x--x-x--3--3-3--|
d--3--3--3--3--x-x--x-x--3--3-3--| x2



Verse (2:50)

e--------------------|
b--------------------|
g--------------------|
d--------------------|
a--------------------|
d--1/////3\\\\\\\\1--|

e--------------------------------|
b--------------------------------|
g--------------------------------|
d--3--3--3--3--x-x--x-x--3--3-3--|
a--3--3--3--3--x-x--x-x--3--3-3--|
d--3--3--3--3--x-x--x-x--3--3-3--| x2



Prechorus (2:58)

e-------------------|
b-------------------|
g-------------------|
d--3--3--3--3--6-8--|
a--3--3--3--3--6-8--|
d--3--3--3--3--6-8--| x4



Solo (3:11)

e------------------------|
b------------------------|
g--13----13----12----10--|
d-----10----10-----------|
a------------------------|
d------------------------|

e--------------------------------------------------|
b--------------------------------------------------|
g--17----16---15--17---16---15-16---17---12----10--|
d--------------------------------------------------|
a-----15---15------15---15-------15---15-----------|
d--------------------------------------------------|



Bridge (2:24)

F



Prechorus (3:41)

e----------------|
b----------------|
g----------------|
d-------3--------|
a---------6------|
d--3-3------6-3--|



Chorus (3:54)

e--------------|
b--------------|
g-----10--8----|
d--3--10--8-6--|
a--3---8--6-6--|
d--3--------6--| x16



Outro (4:20)

e----------------|
b----------------|
g---------10-10--|
d--3-3--3-10-10--|
a--3-3--3--8--8--|
d--3-3--3--------| x4

e----------------|
b----------------|
g-----------<4>--|
d--3-3--<5>------|
a--3-3-----------|
d--3-3-----------|
Добавлено: 21.04.2016
Другие материалы по этой песне:
  • Аккорды и текст

Страница создана 21.04.2016
http://primanota.ru/no-one-is-innocent/djihad-propaganda-chords.htm
Привет, Гость.
Предлагаем пройти революционный курс по гитаре.
Подарок от PrimaNota.Ru, забирай!