PrimaNota.ru - самый крупный в мире бесплатный архив песенных текстов, аккордов, табулатур и нот


No One Is Innocent - Charlie - аккорды и текст, видео

Регистрация Запомнить меня
Войти через:  Facebook Google Twitter Vk Yandex Mail.ru

No One Is Innocent - Charlie - аккорды и текст, видео

Печатать
Просмотров: 45
Charlie
No One Is Innocent
Song: Charlie
Band: No One Is Innocent
Album: Propaganda
Year: 2015
Tabber: beranger80@hotmail.com


Intro (0:00)

Qui sommes-nous? Charlie!
Qui sommes-nous? Charlie!
Qui sommes-nous? Charlie!
Qui sommes-nous? Charlie!
Qui sommes-nous? Charlie!
Qui sommes-nous? Charlie!
Charlie!



Intro (0:14)

  G
e------------|
b------------|
g------------|
d------------|
a------------|
e--3-6--3-3--|

G
Ca sent la poudre, l'infâme qui résonne
G
K.O. debout, je ne sens plus rien
G
Ô pauvre Marianne orpheline,
G
Y'a pas de Charlie qu'on assassine.



Riff (0:32)


e------------|
b------------|
g------------|
d--5-8--5-5--|
a--5-8--5-5--|
e--3-6--3-3--|



Verse (0:44)

e--------------------|
b--------------------|
g--------------------|
d--5-----------------|
a--5-----------------|
e--3--1-3-1-3-1-3-1--|

G
Avec leur provoc', ils se battent au front
G
Du rire aux larmes à coup de crayon
G
Des cartouches d'encres contre des munitions
G
La plume est trop légère face au plomb



Prechorus (0:57)

    Bb
Ah! écrasons l'infâme!
       C
Plutôt mourir debout,
        Eb
Que de vivre à genoux.
Face à eux faut faire front!



Chorus (1:04)

C# C F G 
          Ah Charlie, parle-moi encore.
C# C F G 
          Face à eux faut faire front!
C# C F G 
          Vas-y parle-moi encore.
C# C F G 
          Hun!



Bridge (1:17)

  G
e------------|
b------------|
g------------|
d------------|
a------------|
e--3-6--3-3--|

e------------|    e----------------|
b------------|    b----------------|
g------------|    g----------------|
d--5-8--5-5--|    d----------------|
a--5-8--5-5--|    a----------5--4--|
e--3-6--3-3--|    e--3-6-3-----6---|



Verse (1:32)

G
Nous n'avons pas peur de ce que nous sommes
Fiers d'être infidèles comme des chiens
Ni Dieu, ni maître, jamais en cage
Après le deuil, vient la rage.



Prechorus (1:45)

    Bb
Ah! écrasons l'infâme!
       C
Plutôt mourir debout,
        Eb
Que de vivre à genoux.
Face à eux faut faire front!



Chorus (1:52)

C# C F G 
          Ah Charlie, parle-moi encore.
C# C F G 
          Face à eux faut faire front!
C# C F G 
          Vas-y parle-moi encore.
C# C F G 
          Yeah!



Solo (2:05)

e------------------------------------------------|
b------------------------------------------------|
g--7---------------------------------------------|
d--10b----10b-10b-10b-10b-10b-10b-10b-8-10-8-10--|
a------------------------------------------------|
e------------------------------------------------|

e------------------------------|
b------------------------------|
g------------------------------|
d--8-------------8----10-8-----|  x2
a----10---8-10-----10------10--|
e------------------------------|



Bridge (2:17)

            Bb                  F
Ils vous ont accusé de l'avoir cherché un peu
        G
D'être irresponsables, de faire leur jeu
        Bb                F
De remettre encore de l'huile sur le feu
         G
Voilà les faux-amis, les soutiens de salaud
        Bb                            F
Oui je suis Chalrie, mais c'est de l'accusation
C
Citoyens, faut faire face. Face à eux faut faire front!

Charlie parle-moi encore



Outro (2:39)

C# C F G 
         Face à eux faut faire front!
C# C F G 
         Charlie parle-moi encore
C# C F G 
         Vas-y parle-moi encore.
C# C F G 
         Yeah!
Добавлено: 21.04.2016
Другие материалы по этой песне:
  • Аккорды и текст

Страница создана 21.04.2016
http://primanota.ru/no-one-is-innocent/charlie-chords.htm
Привет, Гость.
Предлагаем пройти революционный курс по гитаре.
Подарок от PrimaNota.Ru, забирай!