PrimaNota.ru - самый крупный в мире бесплатный архив песенных текстов, аккордов, табулатур и нот


No Motiv - Give Me Strength - аккорды и текст, таба, видео

Регистрация Запомнить меня
Войти через:  Facebook Google Twitter Vk Yandex Mail.ru

No Motiv - Give Me Strength - аккорды и текст, таба, видео

Печатать
Просмотров: 151
Give Me Strength
No Motiv
Well, this is my first 
tab done by ear 
pretty accurate :)
pls rate it and have fun

Listen to the song for strum and rythim
*Only play the last 3 strings(E,A,D or A,D,G) of each chords.


Intro:
                                                __
                                                  \
e|------------------------------------------|     |
B|--8/10-9--------------8/10-9--------------|     |
G|---------6-6-6--6-------------6-----------|     |
D|---------------------------------9--7-6---|     |
A|------------------------------------------|     |
E|------------------------------------------|     |
                                                   >   2x
e|------------------------------------------|     |
B|--8/10-9--------------8/10-9--7--5--3-----|     |
G|---------6-6-6--6-------------------------|     |
D|------------------------------------------|     |
A|------------------------------------------|     |
E|------------------------------------------|     |
                                                __/

Verse:

e|-----------------------------------------------------|
B|-----------------------------------------------------|
G|-----------------------------------------------------|
D|-2-X-X-X-X-------------------------------------------|
A|-2-X-X-X-X-------------------------------------------|
E|-0-X-X-X-X--0h3-0h3--2-------------------------------|


F#            E
Another day, another dollar to go on
F#                               D               A 
You've lost your way, you gotta find another savior
E             F# E
'Cause modern man has something more to it all
                  F#                D                 A
You've lost your touch and you're falling out of luck
                   D           E
Did you lose something on your way down here?
          D                                 E                F#
And I forgot my sin and I'm losing it, losing it, losing it all


              A                    E
Give me strength, give me power to go on
F#        A  D          F#
Hear me say all those good things you are
              A                    E    
Give me strength, give me power to go on
F#        A  D          F#
Hear me say all those good things you are

Play intro/outro

e|------------------------------------------|
B|--8/10-9--------------8/10-9--------------|
G|---------6-6-6--6-------------6-----------|
D|---------------------------------9--7-6---|
A|------------------------------------------|
E|------------------------------------------|

e|------------------------------------------|
B|--8/10-9--------------8/10-9--7--5--3-----|
G|---------6-6-6--6-------------------------|
D|------------------------------------------|
A|------------------------------------------|
E|------------------------------------------|


F#                 E
You lost a day to living in the fear of
F#                      D            A
What might delay a finding better ways
E             F# E           
'Cause modern man has something more to it all
                  F#                 D                A
You've lost your touch and you're falling out of luck
                   D           E
Did you lose something on your way down here?
          D                                 E                F#
And I forgot my sin and I'm losing it, losing it, losing it all


              A                    E
Give me strength, give me power to go on
F#        A  D          F#
Hear me say all those good things you are
              A                    E    
Give me strength, give me power to go on
F#        A  D          F#                  E
Hear me say all those good things you are


         D                      A              E
Did you lose something on your way down here?
         D                      A              E
Did you lose something on your way down here?
         D                      A              E
Did you lose something on your way down here?
         D                      A              E
Did you lose something on your way down here?
         D                        A            E
Did shall lose something on your way down here?
         D                        A            E
Did shall lose something on your way down here?


              A                    E
Give me strength, give me power to go on
F#        A  D          F#
Hear me say all those good things you are
              A                    E    
Give me strength, give me power to go on
F#        A  D          F#                  E
Hear me say all those good things you are

Play intro/outro

e|------------------------------------------|
B|--8/10-9--------------8/10-9--------------|
G|---------6-6-6--6-------------6-----------|
D|---------------------------------9--7-6---|
A|------------------------------------------|
E|------------------------------------------|

e|------------------------------------------|
B|--8/10-9--------------8/10-9--7--5--3-----|
G|---------6-6-6--6-------------------------|
D|------------------------------------------|
A|------------------------------------------|
E|------------------------------------------|
Добавлено: 09.08.2015
Другие материалы по этой песне:
  • Аккорды и текст

Страница создана 03.04.2012
http://primanota.ru/no-motiv/give-me-strength-chords.htm
Привет, Гость.
Предлагаем пройти революционный курс по гитаре.
Подарок от PrimaNota.Ru, забирай!