PrimaNota.ru - самый крупный в мире бесплатный архив песенных текстов, аккордов, табулатур и нот


No Fun At All - Out Of Bounds - текст песни, бас-таба, видео

Регистрация Запомнить меня
Войти через:  Facebook Google Twitter Vk Yandex Mail.ru

No Fun At All - Out Of Bounds - текст песни, бас-таба, видео

Печатать
Просмотров: 159
Уроки эстрадного вокала в Санкт-Петербурге
Song: out of bouds
Band: No fun at all
Album: ...the ''Cheap chop '' compilation
tabbed by: Carlos Pino

    intro               x3
G:---------------------¦------------------------------------------
D:---------------------¦------------------------------------------
A:---------------------¦---5-5-5-5-5-5------------------------
E:-6--8-8--2--4-4- ¦------------------------------------------

    verse          x3
G:-------------------¦--------------------------------------------
D:-------------------¦--------------------------------------------
A:-------------------¦--6-6-6-6-6-6---------------------------
E:-6--8-8--2-4-4-¦------------------6-6-6-6-6-6----------

    before chorus
G:---------------------------------------------------------------
D:---------------------------------------------------------------
A:------------3-3-3------------3-3-3-----------3-3-3-----------
E:-4-4-4-4---------4-4-4-4---------4-4-4-4---------6-6-6-6

   chorus
G:---------------------------------------------------------------
D:---------------------------------------------------------------
A:-3-3-3---------6-6-6-6-6-6--3-3-3----------6-6-6-6-6-6------------------3-3-3-3-3-3-6-6-6-6-6-6-6-6-6-6-6-6
E:---------4-4-4---------------------------4-4-4------------------8-8-8-8-8-8---------

G:---------------------------------------------------------------
D:---------------------------------------------------------------
A:--8-8-8-8-8-8-8-8-8-8-8-8-----------------------------
E:---------------------------------------------------------------

    bridge              x2
G:----------------------------------¦-----------------------------
D:----------------------------------¦-----------------------------
A:--1-3-3-------------------------¦------------------------------------
E:----------2-2--4-4-4--8-6-4-¦-6-6-6-6-6-6-6-4-4-4-4-4-4-4-3-3-3-3-3-3-3





Добавлено: 30.07.2012
Другие материалы по этой песне:
  • Аккорды и текст

Страница создана 02.05.2012
http://primanota.ru/no-fun-at-all/out-of-bounds-chords.htm
Привет, Гость.
Предлагаем пройти революционный курс по гитаре.
Подарок от PrimaNota.Ru, забирай!