PrimaNota.ru - самый крупный в мире бесплатный архив песенных текстов, аккордов, табулатур и нот


No Fun At All - Master Celebrator - текст песни, таба, бас-таба, видео

Регистрация Запомнить меня
Войти через:  Facebook Google Twitter Vk Yandex Mail.ru

No Fun At All - Master Celebrator - текст песни, таба, бас-таба, видео

Печатать
Просмотров: 132
Band: No Fun At All
Album: Out Of Bounds



Intro:

e|---------------------------------------------
B|---------------------------------------------  
G|--10----------------------------------------- 
D|--10--10--12--10-----------------------------
A|--8---10--12--10-----------------------------
E|------8---10--8------------------------------


Verses:

e|----------------------|----------------------
B|----------------------|----------------------  
G|--10------------------|---10-----------------
D|--10--10--12--10------|---10--10--12---------
A|--8---10--12--10------|---8---10--12---------
E|------8---10--8-------|-------8---10---------

e|---------------------------------------------
B|---------------------------------------------  
G|--10-----------------------------------------  
D|--10---10---12--8--3-------------------------
A|--8----10---12--8--3-------------------------
E|-------8----10--6--1-------------------------


Chorus:

e|---------------------------------------------
B|---------------------------------------------  
G|-----------10--------------------------------
D|--12----8--10--------------------------------
A|--12----8--8---------------------------------
E|--10----6------------------------------------

e|---------------------------------------------
B|--------------------------------------------- 
G|---------------------------------------------  
D|--12--8--3--10-------------------------------
A|--12--8--3--10-------------------------------
E|--10--6--1--8--------------------------------

e|---------------------------------------------
B|--------------------------------------------- 
G|---------------------------------------------  
D|--6--10--------------------------------------
A|--6--10--------------------------------------
E|--8--8---------------------------------------


Bridge:

e|---------------------------------------------
B|--------------------------------------------- 
G|---------------------------------------------  
D|--3---10---8---------------------------------
A|--3---10---8---------------------------------
E|--1---8----6---------------------------------
 
     Solo in bridge:
e|-----------------------------|------------------------------------------
B|-----------------------------|------------------------------------------
G|-----------------------------|------------------------------------------
D|---77-7-5-5/3-5-3-5/7-5-3-0--|--77-7-5-5/3-5-3-5/7-5-3-(let it ring) ---  X2
A|-----------------------------|------------------------------------------
E|-----------------------------|------------------------------------------



Song Order and text:

INTRO

VERSE 1:

Bow your head and fold your hands
Master celebrator
No one gets a second chance
Master master
Raise your voice and start to speak
Master celebrator
Climb the mountain to it's peak
Master celebrator

CHORUS

But I don't know, I don't know
who knows
No one no one seems to do any better
when they cross the border
No one no one seems to do any better
when they cross the border line
Well I'm fine

VERSE 2:

Raise your head and say the word
Master celebrator
Find a way to fool the herd
Master master
Fill their heads with empty phrases
Master celebrator
Look into their hollow faces
Master celebrator

CHORUS: 

BRIDGE:

Looking back through the years
what history tells us

CHORUS:

INTRO + MUTED PART OF THE VERSES
Добавлено: 20.06.2016
Другие материалы по этой песне:
  • Аккорды и текст

Страница создана 22.02.2012
http://primanota.ru/no-fun-at-all/master-celebrator-chords.htm
Привет, Гость.
Предлагаем пройти революционный курс по гитаре.
Подарок от PrimaNota.Ru, забирай!