PrimaNota.ru - самый крупный в мире бесплатный архив песенных текстов, аккордов, табулатур и нот


No Doubt - Home Now - текст песни, таба, бас-таба, видео

Регистрация Запомнить меня
Войти через:  Facebook Google Twitter Vk Yandex Mail.ru

No Doubt - Home Now - текст песни, таба, бас-таба, видео

Печатать
Просмотров: 173
Авторы: Gwen Stefani, Tom Dumont, Tony Kanal

No Doubt - Home Now
Submitted By: Anjel
EMail: chimchim221@yahoo.com
from Return to Saturn, 2000
written by Gwen Stefani

transcribed Sept, 2000 by "Laura Lynn McWilliams" 


NOTES:
the guitar uses a general mild distortion throughout. whammy
effect is used where noted. all bends are full unless otherwise
indicated. asterisks (*) indicate repeat signs. assume x2 where not
noted.
palm-mute throughout chorus and bridge. the few lyrics i put in ABOVE
the corresponding tab.


intro:
                                                                (x2)
e:-12----9-------12-----9-------|-----------------|---------6------|
B:----12---9--------12----9-----|--------8--------|----------7-----|
G:------------------------------|*---7---------7--|------6--------*|
D:------------------------------|*----------9-----|--8------------*|
A:------------------------------|-----------------|----------------|
E:------------------------------|-----------------|----------------|

                      (x3)
e:-----7--5-------3--2---|--0---3--2--0----|----------------|
B:--0--7-------0--3------|-----------------|--3--2--0-------|
G:*---------------------*|-----------------|----------------|
D:*---------------------*|-----------------|----------------|
A:-----------------------|-----------------|----------------|
E:-----------------------|-----------------|----------------|


verse 1:

"i'm hangin out..."
      (Bm)(w/ whammy)                               (bend)
e:---7----------------|--7--------7-5-7---|----------------|
B:---7----------------|----7--8---------7-|---------^--10--|
G:---7----------------|-------------------|-----7--9b------|
D:---9----------------|-------------------|--9-------------|
A:---9----------------|-------------------|----------------|
E:---7----------------|-------------------|----------------|

                             (1/2 bend)
e:---7--9--10---5-3-2-|---------------|------------|------------------|
B:---7----------------|---------------|--^---------|--7----8-----11---|
G:---7----------------|---------------|-9b-9-7-9-7-|-7-7--9-9--11--11-|
D:--------------------|-/9---11b(12)--|------------|------------------|
A:--------------------|---------------|------------|------------------|
E:--------------------|---------------|------------|------------------|


e:--10--9----|-7--9-10---5-3-2--|-0---2------6----|
B:--------11-|-7----------------|----3-3----7-----|
G:-----------|-7----------------|----------6------|
D:-----------|------------------|-----------------|
A:-----------|------------------|-----------------|
E:-----------|------------------|-----------------|


CHORUS 1:

  .   p.m.       .       .      .       .       .
     (Em)       (Bm)       (F#)           (Bm)
e:-----------|----------|--------------|-----------|
B:---8-8-8-8-|--7-7-7-7-|--11-11-11-11-|-----------|
G:*--9-9-9-9-|--7-7-7-7-|--11-11-11-11-|--7-7-7-7-*|
D:*--9-9-9-9-|--9-9-9-9-|--11-11-11-11-|--9-9-9-9-*|
A:---7-7-7-7-|--9-9-9-9-|--9--9--9--9--|--9-9-9-9--|
E:-----------|----------|--------------|--7-7-7-7--|

.   p.m.       .       .      .         "see you..."
     (Em)       (Bm)       (F#)
e:-----------|----------|--------------|----7-5---3-2-|
B:---8-8-8-8-|--7-7-7-7-|--11-11-11-11-|--0-7---0-3---|
G:---9-9-9-9-|--7-7-7-7-|--11-11-11-11-|*------------*|
D:---9-9-9-9-|--9-9-9-9-|--11-11-11-11-|*------------*|
A:---7-7-7-7-|--9-9-9-9-|--9--9--9--9--|--------------|
E:-----------|----------|--------------|--------------|


VERSE 2:

   (pull-off) (hammer-on)
e:-----------|------------------|--7--9-10--5-3-2-|-0-|--2----6----|
B:-8p7-7-----|--------------5h7-|--7--------------|---|-3-3--7-7---|
G:-------9p7-|-6h7-p4---6h7-----|--7--------------|---|------------|
D:-----------|------------------|-----------------|---|------------|
A:-----------|------------------|-----------------|---|------------|
E:-----------|------------------|-----------------|---|------------|


CHORUS 2:

|: Em - Bm - F# - Bm :| x3, then

   Em - Bm - F#         (rest 3/4 of last measure)


BRIDGE:
(use reverb-delay)

  "super-          vision..."
.   p.m.       .       .      .       .       .
     (F#5)          (E5)       (F#5)           (E5)
e:---------------|----------|--------------|-----------|
B:---------------|----------|--------------|-----------|
G:*--11-11-11-11-|--9-9-9-9-|--11-11-11-11-|--9-9-9-9--|
D:*--11-11-11-11-|--9-9-9-9-|--11-11-11-11-|--9-9-9-9--|
A:---9--9--9--9--|--7-7-7-7-|--9--9--9--9--|--7-7-7-7--|
E:---------------|----------|--------------|-----------|

  "is what i need..."
.   p.m.       .       .      .       .       .
     (F#5)          (E5)       (D5)       (E5)     (x4)
e:---------------|----------|----------|-----------|
B:---------------|----------|----------|-----------|
G:---11-11-11-11-|--9-9-9-9-|--7-7-7-7-|--9-9-9-9-*|
D:---11-11-11-11-|--9-9-9-9-|--7-7-7-7-|--9-9-9-9-*|
A:---9--9--9--9--|--7-7-7-7-|--5-5-5-5-|--7-7-7-7--|
E:---------------|----------|----------|-----------|  "so whatcha..."
e:---------|----------|--------|-----------|
B:---------|----------|--------|--9--7-----|
G:---11----|--9-------|--11----|--9----9---|
D:---11----|--9--11-9-|--11----|--9--------|
A:---9-----|--7-------|--9-----|--7--------|
E:---------|----------|--------|-----------|

"separation's..."    (F#)
e:---2-----3------|------------|
B:--3-3---5-5-----|--11--------|
G:----------------|--11-----11-|
D:----------------|--11--11----|
A:----------------|--9---------|
E:----------------|------------|

repeat CHORUS 2.


OUTRO:

"i need you..."
guitar 1 repeats indefinitely:
e:-----7--5-------3--2---|
B:--0--7-------0--3------|
G:*---------------------*|
D:*---------------------*|
A:-----------------------|
E:-----------------------|

guitar 2:
   (Bm)   (Em) (x4)         (bend up, back down and P.O.)
e:------|---------|---------|---------|-------|-------------|
B:---7--|--8------|-----10--|--^-^----|-------|-------------|
G:*--7--|--9-----*|---7-----|-9b--p7--|-6-----|-------------|
D:*--9--|--9-----*|-9-------|---------|---7-7-|---7-7-/9----|
A:---9--|--7------|---------|---------|-------|-9-----------|
E:------|---------|---------|---------|-------|-------------|

                                              (bend up, then back down)
e:---------------|--------------|--------|-----------------|
B:-------12---14-|-------12-/14-|-15-12--|-----------------|
G:----11---------|----11--------|----11--|--------------^^-|
D:-12------------|-12-----------|--------|---12-14-14-14b -|
A:---------------|--------------|--------|-14--------------|
E:---------------|--------------|--------|-----------------|

e:------------------|---------------------------|
B:------------------|-12--14--15----------------|
G:------------------|-11---------14-12-11h12p11-|
D:-12p11p9--12p11p9-|-12------------------------|
A:------------------|---------------------------|
E:------------------|---------------------------|
                                     "come home now"
e:-7--9-10--5-3-2-|-0-|--2----6----|
B:-7--------------|---|-3-3--7-7---|
G:-7--------------|---|------------|
D:----------------|---|------------|
A:----------------|---|------------|
E:----------------|---|------------|


Please feel free to add corrections.
if you have any questions, email me.

~Laura McWilliams
spoongirl@earthling.net
###
Добавлено: 04.05.2012
Другие материалы по этой песне:
  • Аккорды и текст

Страница создана 25.03.2012
http://primanota.ru/no-doubt/home-now-chords.htm
Привет, Гость.
Предлагаем пройти революционный курс по гитаре.
Подарок от PrimaNota.Ru, забирай!