PrimaNota.ru - самый крупный в мире бесплатный архив песенных текстов, аккордов, табулатур и нот


No Cops For Miles - No Cops In Sight - таба, видео

Регистрация Запомнить меня
Войти через:  Facebook Google Twitter Vk Yandex Mail.ru

No Cops For Miles - No Cops In Sight - таба, видео

Печатать
Просмотров: 92
-------------------------------------------------------------------------------
                             no cops for miles - no cops in sight
-------------------------------------------------------------------------------
Tabbed by: instagram: pill_friends
E-mail: james ibarra

Tuning: kik: sfp.bandcamp

i stayed in school all day to make this tab but i hope you guys like it
there are alittle bit of mistakes but hey im 15 so fuck it

e|------------------------------------|
B|------------------------------------|
G|------------------------------------|
D|------------------------------------|
A|---7--7--7--6--6--6--7--6--7--7--7--|
E|-0--0--0--4--4--4--5--5--5--5--5----|

e|----------------------------------------|
B|----------------------------------------|
G|----------------------------------------|
D|----------------------------------------|
A|---7--11--7--6--9--6--7--9--7--6--9--6--|
E|-0--0---0--4--4--4--5--5--5--4--4--4----|

e|--------------------------------------|
B|--------------------------------------|
G|--------------------------------------|
D|--------------------------------------|
A|--7---7-9-7--6--6-9-6--7--9/14-12-11--|
E|-0--0------4--4------5--5-------------|

e|--------------------------------------------------|
B|--------------------------------------------------|
G|--------------------------------------------------|
D|--------------------------------------------------|
A|-7-7-7-7-7-7-9-9-9-9-9-9-6-6-6-6-6-6-7-7-7-7-7-7--|
E|-0-0-0-0-0-0-7-7-7-7-7-7-4-4-4-4-4-4-5-5-5-5-5-5--|

e|--------------------------------------------------------|
B|--------------------------------------------------------|
G|--------------------------------------------------------|
D|--------------------------------------------------------|
A|-7-7-7-7-7-7/11-11-11-11-11-11-6-6-6-6-6-6-7-7-7-7-7-7--|
E|-0-0-0-0-0-0/0--0--0--0--0--0--4-4-4-4-4-4-5-5-5-5-5-5--|

e|--------------------------------------------------|
B|--------------------------------------------------|
G|--------------------------------------------------|
D|--------------------------------------------------|
A|-7-7-7-7-7-7/11-11-14-11-6-6-6-6-6-6-7-7-7-7-7-7--|
E|-0-0-0-0-0-0/0--0--0--0--4-4-4-4-4-4-5-5-5-5-5-5--|

e|-------------------------------------------------|
B|-------------------------------------------------|
G|-------------------------------------------------|
D|-------------------------------------------------|
A|-7-7-7-7-7-7-11-11-11-11-11-11-14-12-11h12h12-7--|
E|-0-0-0-0-0-0-0--0--0--0--0--0--0--0--0--------0--|



************************************

| /   slide up
| \   slide down
| h   hammer-on
| p   pull-off
| ~   vibrato
| +   harmonic
| x   Mute note
| b   Bend
| pb  Pre-bend
| br  Bend release
| pbr Pre-bend release
| brb Bend release bend

************************************
Добавлено: 07.08.2015
Вам также может быть интересно:
Другие материалы по этой песне:
  • Аккорды и текст

Страница создана 07.08.2015
http://primanota.ru/no-cops-for-miles/no-cops-in-sight-chords.htm
Привет, Гость.
Предлагаем пройти революционный курс по гитаре.
Подарок от PrimaNota.Ru, забирай!