PrimaNota.ru - самый крупный в мире бесплатный архив песенных текстов, аккордов, табулатур и нот


No-Cash - Run Your Pockets - таба, видео

Регистрация Запомнить меня
Войти через:  Facebook Google Twitter Vk Yandex Mail.ru

No-Cash - Run Your Pockets - таба, видео

Печатать
Просмотров: 75
I'm sure you can listen and figure out the strumming patterns on your own...
(4x)
E-----------------------------------|
B-----------------------------------|
G-6--8--9--11/16--14--13--11--------|
D-x--x--x--x--x---x---x---x---------|
A-4--6--7--9/14--12--11--9----------|
E-----------------------------------|

(2x)
E-----------------------------------|
B-----------------------------------|
G-----------------------------------|
D-666-------------------------------|
A-444-666-777-666--444-222-444-666--|
E-----444-555-444--222-000-222-444--|

E-------------------------------------------|
B-------------------------------------------|
G----------------------------------13/-11---|
D-6(6)(6)(6)/-8/-9/-14(14)(14)(14)-x---x----|
A-4(4)(4)(4)/-6/-7/-12(12)(12)(12)-11/-9----|
E-------------------------------------------|

E------------------------------------|
B------------------------------------|
G--13--------------------------------|
D--x--(Repeat as often as you need to)
A--11--------------------------------|
E------------------------------------|

E------------------------------------------|
B------------------------------------------|
G----------------------------------13/-11--|
D-6(6)(6)(6)/-8/-9/-14(14)(14)(14)-x---x---|
A-4(4)(4)(4)/-6/-7/-12(12)(12)(12)-11/-9---|
E------------------------------------------|

E------------------------------------------|
B------------------------------------------|
G------------------------------------------|
D------------------------------------------|
A- 11~--11----11(11)(11)11-----------------|
E--9~---9-----9-(9)-(9)-9--9//-------------|

(2x)
E---------------------------------------------------|
B---------------------------------------------------|
G-6--8--9--11/16--14--13--11------------------------|
D-x--x--x--x--x---x---x---x-------------------------|
A-4--6--7--9/-14--12--11--9-------------------------|
E---------------------------------------------------|

E---------------------------------------------------|
B---------------------------------------------------|
G--16/-14/-13/-14/-13/-11/-13/-11/9/-11-------------|
D--x---x---x---x---x---x---x---x--x--x--------------|
A--14/-12/-11/-12/-11/-9/--11/-9/-7/-9--------------|
E---------------------------------------------------|

(2x)
E---------------------------------------------------|
B---------------------------------------------------|
G---------------------------------------------------|
D-666-----------------------------------------------|
A-444-666-777-666--444-222-444-666------------------|
E-----444-555-444--222-000-222-444------------------|

E---------------------------------------------------|
B---------------------------------------------------|
G---------------------------------13/-11/13~~-------|
D-6(6)(6)(6)-8/-9/-14(14)(14)(14)-x---x--x----------|
A-4(4)(4)(4)-6/-7/-12(12)(12)(12)-11/-9/-11~~-------|
E---------------------------------------------------|

After some time play this:
(Repeat until the song is over)
E----------------------------------------------------|
B----------------------------------------------------|
G----------------------------------------------------|
D-2--------------------------------------------------|
A-2(Palm mute this as long as you need to)-----------|
E-0--------------------------------------------------|
Добавлено: 22.05.2016
Вам также может быть интересно:
Другие материалы по этой песне:
  • Аккорды и текст

Страница создана 22.05.2016
http://primanota.ru/no-cash-2/run-your-pockets-chords.htm
Привет, Гость.
Предлагаем пройти революционный курс по гитаре.
Подарок от PrimaNota.Ru, забирай!