PrimaNota.ru - самый крупный в мире бесплатный архив песенных текстов, аккордов, табулатур и нот


No-Cash - Lucky Few - таба, видео

Регистрация Запомнить меня
Войти через:  Facebook Google Twitter Vk Yandex Mail.ru

No-Cash - Lucky Few - таба, видео

Печатать
Просмотров: 91
Уроки эстрадного вокала в Санкт-Петербурге
No-Cash - The Lucky Few
Run Your Pockets - 2003 - Track 8
Tabbed By: Stephen Parsons - Stevopar@gmail.com

Chords:
   A   E   C#m D
e|-5---7---4---5------------------|
B|-5---9---5---7------------------|
G|-6---9---6---7------------------|
D|-7---9---6---7------------------|
A|-7---7---4---5------------------|
E|-5------------------------------|

||Intro
|Guitar 1 - Powerchords x 6 
A E A E A E C#m D

|Guitar 2 - Octaves
e|----------------|----------------|
B|----------------|----------------|
G|--------6~------|14~---1414~---14|
D|--------x-------|x-----x-x-----x-| very faint
A|--------4~------|12~---1212~---12|
E|----------------|----------------|

e|--------------------------------|        e|--------|
B|--------------------------------|        B|--------|
G|14--9---14--9---14--9---141618--|        G|14~-----| 
D|x---x---x---x---x---x---x-x-x---| louder D|x-------| last ime, faint again
A|12--7---12--7---12--7---121416--|        A|12~-----|
E|--------------------------------|        E|--------|

||Verse
|Guitar 1 - Clean, ska chords
A               E            A                       E     
sprouted from a racist seed, the white men stole the land they need
   A          E             C#m                   D
to renovate a state of hate of greed, and call it something great
A             E                        A                   E                
so every fall they give you thanx, for genocide of natives by the ranks
            A              E             C#m                 D         
now you can find fast food in everytown, McDonalds, Wendy's, Taco Bell
       A                E                         A              E
and as free trade kills domestic jobs, they blame minorities for all their probs
     A               E                    C#m                  D          
they lock 'em up for their enjoyment, say they're the cause of unemployment
A                      E               A                  E
although they say that we're all free, it never felt that way to me
   A                E             C#m             D
as you sit back and watch us die, i cant help but asking

||Guitar 2 - Silent for the whole thing except the beginning
e|----------------|
B|----------------|
G|ah------ah------|
D|6~------6-------| ah=artificial harmonic
A|----------------|
E|----------------|

||Chorus
|Guitar 1 - Power chords
e|----------------|----------------|----------------|----------------|
B|----------------|----------------|----------------|----------------|
G|----------------|7-------7-------|----------------|7-------7-------|
D|7-------2-------|7-------7-------|7-------2-------|7-------7-------|
A|7-------2-------|5-------5-------|7-------2-------|5-------5-------|
E|5-------0-------|----------------|5-------0-------|----------------|
  "Why?"
e|----------------|----------------|----------------|----------------|
B|----------------|----------------|----------------|----------------|
G|----------------|--------77777777|----------------|7-------7-------|
D|7-------2-------|4-------77777777|7-------2-------|7-------7-------|
A|7-------2-------|4-------55555555|7-------2-------|5-------5-------|
E|5-------0-------|2-------mmmmmmmm|5-------0-------|----------------|

|Guitar 2 - Leads, pickslide into
e|15------17------15------1715----|    e|15------17------5-5-5-5-5-5-5-5-|
B|----15------15------15------15--|    B|----15------15--5-5-5-5-5-5-5-5-|
G|--------------------------------| x5 G|----------------m-m-m-m-m-m-m-m-| 6th time
D|--------------------------------|    D|--------------------------------|
A|--------------------------------|    A|--------------------------------|
E|--------------------------------|    E|--------------------------------|

e|5---7---5---75--|5---7---5---75--|
B|--5---5---7---5-|--5---5---7---5-|
G|----------------|----------------| Last time
D|----------------|----------------|
A|----------------|----------------|
E|----------------|----------------|

||Bridge
|Guitar 1 - Clean 
e|0-------0-------|0---2-3-0---2-3-|
B|2-------0-------|3---3-3-3---3-3-|
G|2-------1-------|2---2-2-2---2-2-| x2
D|2-------2-------|0---0-0-0---0-0-|
A|0-------2-------|----------------|
E|--------0-------|----------------| 

|Guitar 2 - Artificial harmonic is distorted, thent goes clean
e|--------7-------|5-------5-------|9-------7-------|5-------5-------| 
B|ah--------9-----|--7-------7-----|--10------9-----|--7-------7-----| 
G|6-----------9---|----7--------7--|----9-------9---|----7-------7---| 
D|----------------|----------------|----------------|----------------| 
A|----------------|----------------|----------------|----------------| 
E|----------------|----------------|----------------|----------------|

||Intro

||Verse
A               E                A                E 
crooked cops on every block, and racist courts to lock you up
  A               E              C#m           D  
a judicial system so corrupt, if yer not white you are a criminal
   A            E               A               E  
educated by the biased man, the kids to dumb to take a stand
A               E                    C#m                 D
faith in dreams that always die, but nightmares hold the upper hand
   A              E                A            E
it snowballs into worthless pawns, multiplying, buying on and on
A                E            C#m                  D
slaving for that weekly wage, but in the end guess who gets paid?
A                      E               A                  E 
although they say that we're all free, it never felt that way to me
A                   E             C#m          D
as you sit back and watch us die, i can't help asking 

||Chorus

||Bridge (Modified)                 
|Guitar 1 - Distorted, powercords
e|----------------|----------------|
B|----------------|----------------|
G|----------------|7-------7-------|
D|7-------2-------|7-------7-------|
A|7-------2-------|5-------5-------|
E|5-------0-------|----------------|

|Guitar 2 - Octaves 
e|----------------|----------------|
B|----------------|----------------|
G|6-------14------|9-------9---1113|
D|x-------x-------|x-------x---x-x-|
A|4-------12------|7-------7---9-11|
E|----------------|----------------|

||Solo 
|Guitar 1 - Distorted, powerchords
e|----------------|----------------|
B|----------------|----------------|
G|----------------|7-------7-------|
D|7-------2-------|7-------7-------|
A|7-------2-------|5-------5-------|
E|5-------0-------|----------------|

|Guitar 2 - Something close to this...
e|4--5--7-----7-5-4--5--7---------|0-00-0000-00-000----------------|
B|-55-55-55555-5-5-55-55-5555\12\5|5-55-5552-22-2220-03-320-03-320-|
G|-mm-mm-mmmmm--------------------|--------------------------------|
D|--------------------------------|--------------------------------|
A|--------------------------------|--------------------------------|
E|--------------------------------|--------------------------------|

||Intro - Ends on A powerchord

Song Order:
Intro
Verse
Chorus
Bridge
Intro
Verse
Chorus
Bridge (Modified)
Solo
Intro

That's it kiddos. No-Ca$h forever.
Добавлено: 22.05.2016
Другие материалы по этой песне:
  • Аккорды и текст

Страница создана 22.05.2016
http://primanota.ru/no-cash-2/lucky-few-chords.htm
Привет, Гость.
Предлагаем пройти революционный курс по гитаре.
Подарок от PrimaNota.Ru, забирай!