PrimaNota.ru - самый крупный в мире бесплатный архив песенных текстов, аккордов, табулатур и нот


No-Cash - Knowledge Is Power - таба, видео

Регистрация Запомнить меня
Войти через:  Facebook Google Twitter Vk Yandex Mail.ru

No-Cash - Knowledge Is Power - таба, видео

Печатать
Просмотров: 88
Artist: No Cash
Song: Knowledge Is Power

Ehyyy you know what?!!!

Intro

e| |--3---2---7-------------------------------------|
B| |--3---3---8---1---------------------------------|
G| |--4---2---9---0---------------------------------|
D| |--5---0---9---2---------------------------------|
A| |--5---0---7---3---------------------------------|
E| |--3---------------------------------------------|

Verse

e| |------------------------------------------------|
B| |------------------------------------------------|
G| |------7---9---5---------------------------------|
D| |--5---7---9---5---------------------------------|
A| |--5---5---7---3---------------------------------|
E| |--3---------------------------------------------|

Chorus (Same as Intro)

Verse

Chorus

Breakdown (Ska Rhythm)

e| |--3---2---3---8---------------------------------|
B| |--3---3---3---8---------------------------------|
G| |--4---2---4---9---------------------------------|
D| |------------------------------------------------|
A| |------------------------------------------------|
E| |------------------------------------------------|


e| |------------------------------------------------|
B| |------------------------------------------------|
G| |------7-------5----------------7---12-----------|
D| |--5---7---2---5------------5---7---12---10------|
A| |--5---5---2---3------------5---5---10---10------|
E| |--3-------0----------------3------------8-------|
      (^play twice)               (^Muted)  

Solo (Play around with muting the G string)

e| |-----------------------------------------------|
B| |--121212h13-12-15--15-15-15--12-h13-12---------|
G| |---0-0-0--0--0--0---0--0--0---0---0--0---------|

e| |-----------------------------------------------|
B| |--121212h13-12--8---8--8--8/-12h13-12----------|
G| |---0-0-0--0--0--0---0--0--0---0--0--0----------|

e| |----------------------------------------17-16-12-10----------------|
B| |--121212h13-12-15--12-12-12--12-h13-12---------------12-12-12h13-12|
G| |---0-0-0--0--0--0---0--0--0---0---0--0-----------------------------|


Verse


Chorus
Добавлено: 07.05.2016
Другие материалы по этой песне:
  • Аккорды и текст

Страница создана 07.05.2016
http://primanota.ru/no-cash-2/knowledge-is-power-chords.htm
Привет, Гость.
Предлагаем пройти революционный курс по гитаре.
Подарок от PrimaNota.Ru, забирай!