PrimaNota.ru - самый крупный в мире бесплатный архив песенных текстов, аккордов, табулатур и нот


No Bragging Rights - Repeater - таба, видео

Регистрация Запомнить меня
Войти через:  Facebook Google Twitter Vk Yandex Mail.ru

No Bragging Rights - Repeater - таба, видео

Печатать
Просмотров: 78
No Bragging Rights
Repeater
Tuning - Drop C

Hope this helps.
Enjoy!

. - palm mute
h - hammer on
p - pull off
/ - slide
~ - let ring

Lead Guitar
Intro
-----------------]-----------------------|
-6--------6------]-----------------------|
-9-x16----9-x16--]-----------------------|
-0--------8------]-x6---0~---55555577778-|
-----------------]------0~---55555577778-|
-----------------]------0~---55555577778-|
                             ...........
Verse
------------------------------------------------|
------------------------------------------------|
-----10----------10-----------------------------|
0-----8-----0-----8-----10-10-10-10-10-10-10-10-|
0-x16-8-x16-0-x16-8-x8--10-10-10-10-10-10-10-10-|
0-----8-----0-----8-----10-10-10-10-10-10-10-10-|
                            .  .  .  .  .

----------------------------------------------------------------------------|
----------------------------------------------------------------------------|
---------------------------7-5--7-5-5-7-5--7-5h7h9--------------------------|
-3-3--5--2--3-5-3--5--2-3--------------------------3-3--5--2--3-5-3--5--2-3-|
----------------------------------------------------------------------------|
----------------------------------------------------------------------------|

------------------------------|
------------------------------|
-7-5--7-5-5-7p5h7/9-9p7h9/10--|
------------------------------|
------------------------------|
------------------------------|

Pre Chorus
--------------------------------------------------------|
--------------------------------------------------------|
-10-----17-----14-----12------14-----10----17----14-----|
--x-x8---x-x6---x-x2---x-x13---x-x3---x-x8--x-x6--x-x2--|
--8-----15-----12-----10------12------8----15----12-----|
--------------------------------------------------------|

-------------------------------------------------|
-------------------13-------------13-------13----|
----10----12p10-------12----12-------12-------12-|
-10----10-------10-------10----10-------10-------|
-------------------------------------------------|
-------------------------------------------------|
  .     .        .        .     .        .

Chorus
[-------------]-----------------------------------------|
[-------------]------------------5-6/10/13-6--6/10/13-6-|
[-7\14--9--10-]------2---5~--5h7------------------------|
[-x--x--x---x-]x3--3---3--------------------------------|
[-5\12--7---8-]-----------------------------------------|
[-------------]-----------------------------------------|
                   .   .     . .
-------------------------------------------------|
-------------------13-------------13-------13----|
----10----12p10-------12----12-------12-------12-|
-10----10-------10-------10----10-------10-------|
-------------------------------------------------| x2
-------------------------------------------------|
  .     .        .        .     .        .

---------------------------------------------|
---------------------------------------------|
-10~-----------------------------------------|
--8~--10-10-10-10-10-10-10-10-10-10-10-10-10-|
--8~--10-10-10-10-10-10-10-10-10-10-10-10-10-|
--8~--10-10-10-10-10-10-10-10-10-10-10-10-10-|
          .  .  .  .  .  .  .  .  .  .  .

Bridge
----------8~---8~---8~---8~---8-----------8~---8--------------|
-----5h6-----6----6----6----6--------5h6-----6----8--6----5h6-|
-5h7-----------------------------5h7-------------------5------|
--------------------------------------------------------------|
--------------------------------------------------------------| x4
--------------------------------------------------------------|
 . . .       .    .    .    .    . . .       .

------------------------------------------------------------------------|
------------------------------------------------------------------------|
------------------------------------------------------------------------|
8--8-8-8-8-8-8-8-8-8-8-8-8-8-10--10-10-10-10-10-10-10-10-10-10-10-10-10-|
8--8-8-8-8-8-8-8-8-8-8-8-8-8-10--10-10-10-10-10-10-10-10-10-10-10-10-10-|
8--8-8-8-8-8-8-8-8-8-8-8-8-8-10--10-10-10-10-10-10-10-10-10-10-10-10-10-|
   . . . . . . . . . . . . .      .  .  .  .  .  .  .  .  .  .  .  .  .

---------------------------------------------------------------|
---------------------------------------------------------------|
---------------------------------------------------------------|
8--8-8-8-8-8-8-8-8-8-8-8-8-8-0--0-0-0-0-0-10-10-10-10-10-10-10-|
8--8-8-8-8-8-8-8-8-8-8-8-8-8-0--0-0-0-0-0-10-10-10-10-10-10-10-|
8--8-8-8-8-8-8-8-8-8-8-8-8-8-0--0-0-0-0-0-10-10-10-10-10-10-10-|
   . . . . . . . . . . . . .    . . . . .  .  .  .  .  .

Chorus
[-------------]-----------------------------------------|
[-------------]------------------5-6/10/13-6--6/10/13-6-|
[-7\14--9--10-]------2---5~--5h7------------------------|
[-x--x--x---x-]x3--3---3--------------------------------|
[-5\12--7---8-]-----------------------------------------|
[-------------]-----------------------------------------|
                   .   .     . .
-------------------------------------------------|
-------------------13-------------13-------13----|    Last time slow down to
----10----12p10-------12----12-------12-------12-|    beginning tempo
-10----10-------10-------10----10-------10-------|
-------------------------------------------------| x4
-------------------------------------------------|
  .     .        .        .     .        .

-----------------    -----------------------------------|
-6--------6------    -----------------------------------|
-9-x16----9-x16--    -----------------------------------|
-0--------8------    ---0--000-------0--0000-8888-8-8-8-|
----------------- x2 ---0--000-------0--0000-0000-0-0-0-|
-----------------    ---0--000----0~-0--0000-0000-0-0-0-| x2
                        .  ...       .  .... .... . . .

Rythym Guitar
Intro
-----------------------------------|
-----------------------------------|
-----------------------------------|
---0--000-------0--0000-8888-8-8-8-|
---0--000-------0--0000-0000-0-0-0-|
---0--000----0~-0--0000-0000-0-0-0-| x2
   .  ...       .  .... .... . . .

-----------------------------------------    -----------------|
-----------------------------------------    -----------------|
-----------------------------------------    -----------------|
---0--000-------0--0000-8888-8-8-8--8\10-    -0~--55555577778-|
---0--000-------0--0000-0000-0-0-0--8\10- x2 -0~--55555577778-|
---0--000----0~-0--0000-0000-0-0-0--8\10-    -0~--55555577778-|
   .  ...       .  .... .... . . .                ...........

Verse
------------------------------------------------|
------------------------------------------------|
-----10----------10-----------------------------|
0-----8-----0-----8-----10-10-10-10-10-10-10-10-|
0-x16-8-x16-0-x16-8-x8--10-10-10-10-10-10-10-10-| x2
0-----8-----0-----8-----10-10-10-10-10-10-10-10-|
                            .  .  .  .  .

Pre Chorus
------------------------------|
------------------------------|
10---------12------10------12-|
-8---------10-------8------10-|
-8-x16-----10-x16---8-x16--10-|
-8---------10-------8------10-|

Chorus
----------------------------|
----------------------------|
-3------7-------------5-----|
-3-x16--7-x16--3-x16--5-x16-| x2
-1------5------3------3-----|
---------------3------------|

---------------------------------------------|
---------------------------------------------|
-10~-----------------------------------------|
--8~--10-10-10-10-10-10-10-10-10-10-10-10-10-|
--8~--10-10-10-10-10-10-10-10-10-10-10-10-10-|
--8~--10-10-10-10-10-10-10-10-10-10-10-10-10-|
          .  .  .  .  .  .  .  .  .  .  .

Bridge
--------------------------------------------------------|
--------------------------------------------------------|
------------------------------10--9--7--5~-5~---9/10----|
8888-8----0--0--1010--8888-8---x--x--x--x--x----x--x----|
8888-8----0--0--1010--8888-8---8--7--5--3~-3~---7/-8----| x4
8888-8----0--0--1010--8888-8----------------------------|
.... .    .  .   . .  .... .

 -----------------------------------------------------------------------|
------------------------------------------------------------------------|
------------------------------------------------------------------------|
8--8-8-8-8-8-8-8-8-8-8-8-8-8-10--10-10-10-10-10-10-10-10-10-10-10-10-10-|
8--8-8-8-8-8-8-8-8-8-8-8-8-8-10--10-10-10-10-10-10-10-10-10-10-10-10-10-|
8--8-8-8-8-8-8-8-8-8-8-8-8-8-10--10-10-10-10-10-10-10-10-10-10-10-10-10-|
   . . . . . . . . . . . . .      .  .  .  .  .  .  .  .  .  .  .  .  .

---------------------------------------------------------------|
---------------------------------------------------------------|
---------------------------------------------------------------|
8--8-8-8-8-8-8-8-8-8-8-8-8-8-0--0-0-0-0-0-10-10-10-10-10-10-10-|
8--8-8-8-8-8-8-8-8-8-8-8-8-8-0--0-0-0-0-0-10-10-10-10-10-10-10-|
8--8-8-8-8-8-8-8-8-8-8-8-8-8-0--0-0-0-0-0-10-10-10-10-10-10-10-|
   . . . . . . . . . . . . .    . . . . .  .  .  .  .  .

Chorus
----------------------------|
----------------------------|
-3------7-------------5-----|
-3-x16--7-x16--3-x16--5-x16-| x4
-1------5------3------3-----|
---------------3------------|

Outro
-----------------------------------|
-----------------------------------|
-----------------------------------|
---0--000-------0--0000-8888-8-8-8-|
---0--000-------0--0000-0000-0-0-0-|
---0--000----0~-0--0000-0000-0-0-0-| x4
   .  ...       .  .... .... . . .
Добавлено: 15.11.2013
Вам также может быть интересно:
Другие материалы по этой песне:
  • Аккорды и текст

Страница создана 15.11.2013
http://primanota.ru/no-bragging-rights/repeater-chords.htm
Привет, Гость.
Предлагаем пройти революционный курс по гитаре.
Подарок от PrimaNota.Ru, забирай!