PrimaNota.ru - самый крупный в мире бесплатный архив песенных текстов, аккордов, табулатур и нот


No Bragging Rights - Hope Theory - таба, видео

Регистрация Запомнить меня
Войти через:  Facebook Google Twitter Vk Yandex Mail.ru

No Bragging Rights - Hope Theory - таба, видео

Печатать
Просмотров: 68
This is not perfect, but its pretty close. Hope it helps you out.

No Bragging Rights
Hope Theory
Tuning- Drop C

. -palm mute
~ -let ring
/ -slide up
h -hammer on
p -pull off
du -down up (double pick)

Rhythm Guitar

Intro
-------------------------------------------------------|
-------------------------------------------------------|
---------5-----10-9------------------------------------|
2--2222--5--5--10-9------2--0h2~-22------00~-0~-0~-00--|
2--2222--3--5--8--7------2--0h2~-22------00~-0~-0~-00--|
2--2222-----5------------2--0h2~-22------00~-0~-0~-00--|
   .... 

Verse                  
-----------------------------------------------------------|
-----------------------------------------------------------|
5-------7--------------------5-----------------------------|
5-x28---7-x4---2------0------5-x28--0-----2-------0~-0~-0--|
3-------5------2-x16--0-x16--3------0-x4--2-x16---0~-0~-0--|
---------------2------0-------------0-----2-------0~-0~-0--|

-----------------------------------------------------------------|
-----------------------------------------------------------------|
5-------7--------------------5-----------------------------5~--7~|
5-x28---7-x4---2------0------5-x28--0-----2-------0--------5~--7~|
3-------5------2-x16--0-x16--3------0-x4--2-x16---0-x16----3~--5~|
---------------2------0-------------0-----2-------0--------------|

-----0~----|      ------------|
-----0~----|      ------------|
-----0~----|      ------------|
2~---------| x2   0~---00-0-00|
2~---------|      0~---00-0-00|
2~---------|      0~---00-0-00|
                       ..   ..
Breakdown
--------------------------------------------------------|
--------------------------------------------------------|
----------------444-4----5---------------------77-5-----|
2~--2-22222-2-22222-2-22-5-5-0-2~--2-22222-222-77-5-5-0-|
2~--2-22222-2-22222-2-22-3-5-0-2~--2-22222-222-55-3-5-0-|
2~--2-22222-2-22222-2-22---5-0-2~--2-22222-222------5-0-|
      ..... . ..... . ..     .       ..... ...        .

-----------------------------------------------|
-----------------------------------------------|
----------------444-4----5---------------------|
2~--2-22222-2-22222-2-22-5-5-0-2~--2-22222-222-|
2~--2-22222-2-22222-2-22-3-5-0-2~--2-22222-222-|
2~--2-22222-2-22222-2-22---5-0-2~--2-22222-222-|
      ..... . ..... . ..     .       ..... ...

--------------------------------------------------------|
--------------------------------------------------------|
-------------------------5---------------------77-5-----|
2~--2-22222-2------------5-5-0-2---2-22222-----77-5-5-0-|
2~--2-22222-2------------3-5-0-2---2-22222-----55-3-5-0-|
2~--2-22222-2--------------5-0-2---2-22222----------5-0-|
    . ..... .                .     . .....            .

----------------------------------------------------------|
----------------------------------------------------------|
-------------------------5---------------------55-77------|
2~--2-22222-2------------5-5-0-2---2-22222-----55-77--2~--|
2~--2-22222-2------------3-5-0-2---2-22222-----33-55--2~--|
2~--2-22222-2--------------5-0-2---2-22222------------2~--|        
    . ..... .                .     . .....

-------------|
-------------|
-------------|
00~-000~--00-|
00~-000~--00-|
00~-000~--00-|

Verse
-----------------------------------------------------------------|
-----------------------------------------------------------------|
5-------7--------------------5-----------------------------------|
5-x28---7-x4---2------0------5-x28--0-----2-------0--------------|
3-------5------2-x16--0-x16--3------0-x4--2-x16---0-x16----------|
---------------2------0-------------0-----2-------0--------------|


-----------------------------------------------------------------|
-----------------------------------------------------------------|
5-------7--------------------5-----------------------------5~--7~|
5-x28---7-x4---2------0------5-x28--0-----2-------0--------5~--7~|
3-------5------2-x16--0-x16--3------0-x4--2-x16---0-x16----3~--5~|
---------------2------0-------------0-----2-------0--------------|

--------------|
--------------|
555555557-----|
555555557-----|
333333335-----|
--------------|
........

Bridge
-----------------------|
-----------------------|
5-----5----------------|
5-x8--4-x8--2-----0----| x4
3-----2-----2-x8--0-x8-|
------------2-----0----|

--------|
--------|
--------|
2~------| x2
2~------|
2~------|

Breakdown
-----------------------------------------------------------|
-----------------------------------------------------------|
----------5-------------------------------5----------------|
2--2--2-x-5--0-22-------002005--2--2--2-x-5--0-22------0-3-| x4
2--2--2-x-3--0-22-------002005--2--2--2-x-3--0-22------0-3-|
2--2--2-x----0-22-------002005--2--2--2-x----0-22------0-3-|
                        ......
----|
----|
----|
2---|
2---|
2---|

Lead Guitar
Intro

-------------------------------------------------------------|
-------------------------------------------------------------|
---------5-----10-9---------------------------------------7--|
2--2222--5--5--10-9------2--0h2~-22-----00-0-22-2-4-----5----|
2--2222--3--5--8--7------2--0h2~-22-----------------3/5------|
2--2222-----5------------2--0h2~-22--------------------------|
   ....                                 .. . .. . .

Verse
---------------------------------------------------------------------------|
---------------------------------------------------------------------------|
5-------7--------------------5---------------------------------------4-5h7-|
5-x28---7-x4---2------0------5-x28--0-----2-------0~-0~-0------4-5-7-------|
3-------5------2-x16--0-x16--3------0-x4--2-x16---0~-0~-0--5-7-------------|
---------------2------0-------------0-----2-------0~-0~-0------------------|
                                                           . . . . . .

-------------------------------10~----------------------------10101010101010|
--3-------3------5--3----7h8p7------555888777-------555888777---------------|
------0-------0-------0----------------------7777777------------------------|
----4-------4---------------------------------------------------------------|
----------------------------------------------------------------------------|
----------------------------------------------------------------------------|
                                    ......................... . . . . . . .

-------------------------------10~-------------------------------------|
--3-------3------5--3----7h8p7-----------------------------------------|
------0-------0-------0------------16---19---14---12----14---16--11----|
----4-------4-----------------------x----x----x----x-----x----x---x----|
-----------------------------------14---17---12---10----12---14---9----|
-----------------------------------------------------------------------|

--------------|
--------------|
--12~---11~---|
---x-----x----|
--10~----9~---|
--------------|

-----0~----------------------------------------|      
-----0~-------------------3~----------3--------|      
-----0~------------0~--------------------------|    
2~---------------0----2p0----2p0--020---0-0h2--| 
2~-------------3-------------------------------|    
2~---------0-2---------------------------------|  
           . . . .                ...   .   

-----0~------------------------|    
-----0~------------------------|     
-----0~------------0~----------|   
2~---------------0----2p0--0~--| 
2~-------------3-----------0~--|   
2~---------0-2-------------0~--|
           . . . .
---------|
---------|
---------|
--00-0-00|
--00-0-00|
--00-0-00|
  ..   ..

Breakdown
--------------------------------------------------------|
--------------------------------------------------------|
----------------444-4----5---------------------77-5-----|
2~--2-22222-2-22222-2-22-5-5-0-2~--2-22222-222-77-5-5-0-|
2~--2-22222-2-22222-2-22-3-5-0-2~--2-22222-222-55-3-5-0-|
2~--2-22222-2-22222-2-22---5-0-2~--2-22222-222------5-0-|
      ..... . ..... . ..     .       ..... ...        .

----------------------------------------------------------|
----------------------------------------------------------|
----------------444-4----5--------------------------------|
2~--2-22222-2-22222-2-22-5-5-0-2~--2-22222-222--5-4-------|
2~--2-22222-2-22222-2-22-3-5-0-2~--2-22222-222------0h3-5-|
2~--2-22222-2-22222-2-22---5-0-2~--2-22222-222------------|
    . ..... . ..... . ..     .     . ..... ... 

--------------------------------------------------------|
--------------------------------------------------------|
-------------------------5---------------------77-5-----|
2~--2-22222-2-2-2-2-2-2--5-5-0-2---2-22222-2-2-77-5-5-0-|
2~--2-22222-2-2-2-2-2-2--3-5-0-2---2-22222-2-2-55-3-5-0-|
2~--2-22222-2-2-2-2-2-2----5-0-2---2-22222-2-2------5-0-|
    . ..... . . . . . .      .     . ..... . .        .

-----------------------------------------------------------|
-----------------------------------------------------------|
-------------------------5----------------------55-77------|
2~--2-22222-2-2-2-2-2-2--5-5-0-2---2-22222-2-2--55-77--2~--|
2~--2-22222-2-2-2-2-2-2--3-5-0-2---2-22222-2-2--33-55--2~--|
2~--2-22222-2-2-2-2-2-2----5-0-2---2-22222-2-2---------2~--| 
    . ..... . . . . . .      .     . ..... . .    

Verse
-------------------------------10~----------------------------10101010101010|
--3-------3------5--3----7h8p7------555888777-------555888777---------------|
------0-------0-------0----------------------7777777------------------------|
----4-------4---------------------------------------------------------------|
----------------------------------------------------------------------------|
----------------------------------------------------------------------------|
                                    ......................... . . . . . . .

-------------------------------10~-------------------------------------|
--3-------3------5--3----7h8p7-----------------------------------------|
------0-------0-------0------------16---19---14---12----14---16--11----|
----4-------4-----------------------x----x----x----x-----x----x---x----|
-----------------------------------14---17---12---10----12---14---9----| x2
-----------------------------------------------------------------------|

-------------------10-----10-----10|
---------------7h8----7h8----7h8--8|
12~----14~---7---------------------|
-x------x--------------------------|
10~----12~-------------------------|
-----------------------------------|
             .
Bridge
15-------14-15----------------------------------------------------------|
---15----------15----15----12----12----12-10----------------------------|
------12----------12----14----14----14-------12-12-12-12-19-19-16-16-16-|
-------------------------------------------------x--x--x-x---x--x--x--x-|
------------------------------------------------10-10-10-17-17-14-14-14-|
------------------------------------------------------------------------|

------------------------|
--10-----10-----8-------|
7----7-7----7-7---------|
------------------------|
------------------------|
------------------------|
.    . .    . .

15-------14-15----------------------------------------------------------|
---15----------15----15----12----12----12-10----------------------------|
------12----------12----14----14----14-------12-12-12-12-19-19-16-16-16-|
-------------------------------------------------x--x--x-x---x--x--x--x-|
------------------------------------------------10-10-10-17-17-14-14-14-|
------------------------------------------------------------------------|

----------5p3h5/10--10p8h10/14--15-15-15-14-14-10-10-------------------|
--10-------------------------------------------------8-8-8-8-8-8-7-7-8-|
7----7-7---------------------------------------------------------------|
-----------------------------------------------------------------------|       
-----------------------------------------------------------------------|
-----------------------------------------------------------------------|
.    . .                        du du du du du du du dududududududududu

15-15-15-14-14-10-10-17-17-17-17-17-17-14-14-14-15-------14-15---------|
---------------------------------------------------15----------15----15|
------------------------------------------------------12----------12---|
-----------------------------------------------------------------------|
-----------------------------------------------------------------------|
-----------------------------------------------------------------------|
du du du du du du du du du du du du du du du du 

---------------------------------------------------------3h5p3p0-----------|
---12----12----12-10------------------------------10-----------------------|
14----14----14-------12-12-12-12-19-19-16-16-16-7----7-7-------------------|
-------------------------x--x--x--x--x--x--x--x------------------7h8p7p5---|
------------------------10-10-10-17-17-14-14-14--------------------------7~|
---------------------------------------------------------------------------|


---------------------------------------------------------------x-|
---------------------------------------------------------------x-|
----------5------------------------------------5---------------x-|
2--2--2-x-5-0-22~---------2~---------2--2--2-x-5-0-22----------x-|
2--2--2-x-3-0-22~---------2~---------2--2--2-x-3-0-22----------x-|
2--2--2-x---0-22~---------2~---------2--2--2-x---0-22----------x-|

Breakdown
-----------------------------------------------------------|
-----------------------------------------------------------|
----------5-------------------------------5----------------|
2--2--2-x-5--0-22-------002005--2--2--2-x-5--0-22------0-3-| 
2--2--2-x-3--0-22-------002005--2--2--2-x-3--0-22------0-3-| x2
2--2--2-x----0-22-------002005--2--2--2-x----0-22------0-3-| 
                        ......

--------------------------------------10~--|    -------|
---------------------------------8~--------|    -------|
7~------7~-----------4~----7~--------------|    -------|
----4~------5~--4~-------------------------|    -0-3-2/|
-------------------------------------------|    -0-3-2/|
-------------------------------------------| x2  0-3-2/|
Добавлено: 15.09.2013
Другие материалы по этой песне:
  • Аккорды и текст

Страница создана 15.09.2013
http://primanota.ru/no-bragging-rights/hope-theory-chords.htm
Привет, Гость.
Предлагаем пройти революционный курс по гитаре.
Подарок от PrimaNota.Ru, забирай!