PrimaNota.ru - самый крупный в мире бесплатный архив песенных текстов, аккордов, табулатур и нот


No Bragging Rights - Cycles - таба, видео

Регистрация Запомнить меня
Войти через:  Facebook Google Twitter Vk Yandex Mail.ru

No Bragging Rights - Cycles - таба, видео

Печатать
Просмотров: 168
Уроки эстрадного вокала в Санкт-Петербурге
MING MING!!

No Bragging Rights
Cycles
Tuning - Drop C

~ - hold out note
p - pull off
h - hammer on
/ - slide
. - palm mute

Lead Guitar
Intro/Chorus
-13----------------13---------------------13-------|
----11-10----10h11----10~--------10h11p10----10h11-|
---------------------------------------------------|
----------12---------------10h12-------------------|
---------------------------------------------------|
---------------------------------------------------|
           .                .
-10p8----10p8-----------------------------]-----------------------------|
-------------------8~-----------13--------]-----------------6-----------|
------10------10---9~----9h10p9----9h10---]---------------7---------14/-|
------------------10~-10----------------x6]-0~---0-8-8--8-----0000---x--|
------------------------------------------]-0~---0-8-8--------0000--12/-|
------------------------------------------]-0~---0-8-8--------0000------|
       .       .       .
Verse
------------------------------------------------------------|
------------------------------------------------------------|
-7-----9----10-----5----9-----10----12------------------12/-|
-x-x12-x-x2--x-x10-x-x8-x-x12--x-x2--x-x2-00-000-000-00--x--|
-5-----7-----8-----3----7------8----10----00-000-000-00-14/-|
------------------------------------------00-000-000-00-----|
                                          .. ... ... ..
------------------------------------------------------------------|
------------------------------------------------------------------|
-7-----9----10-----5----9----10----12----14-----------------------|
-x-x12-x-x2--x-x10-x-x8-x-x8--x-x3--x-x3--x-x2--0~-0~-0~-11111/4~-|
-5-----7-----8-----3----7-----8----10----12-----0~-0~-0~-11111/4~-|
------------------------------------------------0~-0~-0~-11111/4~-|

----------------------------------------|
----------------------------------------|
----------------------------------------|
0--0-00--000001~-0--0-00-0000-1111/4444-|
0--0-00--000001~-0--0-00-0000-1111/4444-| x2
0--0-00--000001~-0--0-00-0000-1111/4444-|
         .....

--------------------------------------------------------------------|
------------------------------------------------------------13------|
-----------------------------------------------------9h10p9----9h10-|
0~-0-0-0-0-0-1-0-0-0-0-0-0-0-0-0-0-0-0-0-0-0-10~--10----------------|
0~-0-0-0-0-0-1-0-0-0-0-0-0-0-0-0-0-0-0-0-0-0-10~--------------------|
0~-0-0-0-0-0-1-0-0-0-0-0-0-0-0-0-0-0-0-0-0-0-10~--------------------|
   . . . . .   . . . . . . . .   . . . . . .       .
Chorus
-13----------------13---------------------13-------|
----11-10----10h11----10~--------10h11p10----10h11-|
---------------------------------------------------|
----------12---------------10h12-------------------|
---------------------------------------------------|
---------------------------------------------------|
           .                .
-10p8----10p8---------[------------------:]    [-------------------|
-------------------8~-[----------13------:]    [-------------------|
------10------10---9~-[---9h10p9----9h10-:]    [-------------------|
------------------10~-[10----------------:] x4 [-8-5-10-13-12------|
----------------------[------------------:]    [-8-5-10-13-12------|
----------------------[------------------:]    [-8-5-10-13-12------|

--------------------------------------------------------------------|
--------------------------------------------------------------------|
--------------------------------------------------------------------|
0-0-0-0-0-0-0-0-0-0-0-0-8-8-8-0-0-0-8-0-0-0-0-0-0-0-0--8-5-10-13-0~-|
0-0-0-0-0-0-0-0-0-0-0-0-0-0-0-0-0-0-8-0-0-0-0-0-0-0-0--8-5-10-13-0~-|
0-0-0-0-0-0-0-0-0-0-0-0-0-0-0-0-0-0-8-0-0-0-0-0-0-0-0--8-5-10-13-0~-|
. . . . . . . . . . . . . . .   . .     . . . . . . .

-------------|
-------------|
-------------|
0-----8-8-8--|
0-----0-0-0--|
0-----0-0-0--|
      . . .
Breakdown
---------------------------------------------------------------------|
---------------------------------------------------------------------|
---------------------------------------------------------------------|
0~-----0-0-0-0-0-0-0-0-0-8-8-8-0-0-0-8-0-0-0-0-0-0-0-0--8-5-10-13-12-|
0~-----0-0-0-0-0-0-0-0-0-0-0-0-0-0-0-8-0-0-0-0-0-0-0-0--8-5-10-13-12-|
0~-----0-0-0-0-0-0-0-0-0-0-0-0-0-0-0-8-0-0-0-0-0-0-0-0--8-5-10-13-12-|
       . . . . . . . . . . . .   . .     . . . . . . .

---------------------------------------------------------------------|
---------------------------------------------------------------------|
---------------------------------------------------------------------|
-------0-0-0-0-0-0-0-0-0-8-8-8-0-0-0-8-0-0-0-0-0-0-0-0--8-5-10-13-12-|
-------0-0-0-0-0-0-0-0-0-0-0-0-0-0-0-8-0-0-0-0-0-0-0-0--8-5-10-13-12-|
-------0-0-0-0-0-0-0-0-0-0-0-0-0-0-0-8-0-0-0-0-0-0-0-0--8-5-10-13-12-|
       . . . . . . . . . . . .   . .     . . . . . . .

--------------------------------------------------------------------|
--------------------------------------------------------------------|
--------------------------------------------------------------------|
0-0-0-0-0-0-0-0-0-0-0-0-8-8-8-0-0-0-8-0-0-0-0-0-0-0-0--8-5-10-13-12-| x2
0-0-0-0-0-0-0-0-0-0-0-0-0-0-0-0-0-0-8-0-0-0-0-0-0-0-0--8-5-10-13-12-|
0-0-0-0-0-0-0-0-0-0-0-0-0-0-0-0-0-0-8-0-0-0-0-0-0-0-0--8-5-10-13-12-|
. . . . . . . . . . . . . . .   . .     . . . . . . .

Chorus
-13----------------13---------------------13-------|
----11-10----10h11----10~--------10h11p10----10h11-|
---------------------------------------------------|
----------12---------------10h12-------------------|
---------------------------------------------------|
---------------------------------------------------|
           .                .                     very last time
-10p8----10p8----------------------------     ------------------|
-------------------8~------------13------     --8--8--8--8------|
------10------10---9~-----9h10p9----9h10-     --9--9--9--9------|
------------------10~--10---------------- x4  -10-10-10-10------|
-----------------------------------------     ------------------|
-----------------------------------------     ------------------|

Rythym Guitar
Intro
------------------------------|
------------------------------|
-----5---------------------5~-|
0~---5--0~---0-0-0-0-0-0-0-5~-|
0~---3--0~---0-0-0-0-0-0-0-3~-|
0~------0~---0-0-0-0-0-0-0----|
             . . . . . . .

Chorus
--------------------------------------------------------------------|
--------------------------------------------------------------------|
----------5-5------------------------------------------10-10-9-9-10-|
0-0-0-0-0-5-5-0--0-0-0-7-7-7-7-8-8-8-8-8-8-8-10--10-10--x--x-x-x--x-|
0-0-0-0-0-3-3-0--0-0-0-7-7-7-7-8-8-8-8-8-8-8-10--10-10--8--8-7-7--8-| x2
0-0-0-0-0-----0--0-0-0-7-7-7-7-8-8-8-8-8-8-8-10--10-10--------------|

----------------------|
----------------------|
------------------10--|
0~--0-8-8----0000--x--|
0~--0-8-8----0000--8--|
0~--0-8-8----0000-----|

Verse
-----------------------------------------------------------------------|
-----------------------------------------------------------------------|
----------------5---------------------10/--------------5---------------|
0-------5-------5-x16--00-000-000-00---x--0-----5------5-x16---0~-0~-0-|
0-x16---5-x16---3------00-000-000-00---8/-0-x16-5-x16--3-------0~-0~-0-|
0-------5--------------00-000-000-00------0-----5--------------0~-0~-0-|
                       .. ... ... ..
Breakdown
----------------------------------------|
----------------------------------------|
----------------------------------------|
0--0-00--000001~-0--0-00-0000-1111/4444-|
0--0-00--000001~-0--0-00-0000-1111/4444-| x2
0--0-00--000001~-0--0-00-0000-1111/4444-|
         .....

-------------------------------------------------|
-------------------------------------------------|
-------------------------------------------------|
0~-0-0-0-0-0-1-0-0-0-0-0-0-0-0-0-0-0-0-0-0-0-10~-|
0~-0-0-0-0-0-1-0-0-0-0-0-0-0-0-0-0-0-0-0-0-0-10~-|
0~-0-0-0-0-0-1-0-0-0-0-0-0-0-0-0-0-0-0-0-0-0-10~-|
   . . . . .   . . . . . . . .   . . . . . .

    Chorus
--------------------------------------------------------------------|
--------------------------------------------------------------------|
----------5-5------------------------------------------10-10-9-9-10-|
0-0-0-0-0-5-5-0--0-0-0-7-7-7-7-8-8-8-8-8-8-8-10--10-10--x--x-x-x--x-|
0-0-0-0-0-3-3-0--0-0-0-7-7-7-7-8-8-8-8-8-8-8-10--10-10--8--8-7-7--8-| x2
0-0-0-0-0-----0--0-0-0-7-7-7-7-8-8-8-8-8-8-8-10--10-10--------------|

Half time chorus
--------------------------------------------------------------------|
--------------------------------------------------------------------|
----------------------------------------------5-5-5-5-5-5-5-5-------|
8-8-8-8-8-8-8--7-7-7-7-7-7-7-7-0-0-0-0-0-0-0--5-5-5-5-5-5-5-5-------|
8-8-8-8-8-8-8--7-7-7-7-7-7-7-7-0-0-0-0-0-0-0--3-3-3-3-3-3-3-3-------|
8-8-8-8-8-8-8--7-7-7-7-7-7-7-7-0-0-0-0-0-0-0------------------------|

---------------------------------------------------------------------------|
---------------------------------------------------------------------------|
----------------------------------------------5-5-5-5-5-5-5-5--------------|
8-8-8-8-8-8-8--7-7-7-7-7-7-7-7-0-0-0-0-0-0-0--5-5-5-5-5-5-5-5-8-5-10-13-12-|
8-8-8-8-8-8-8--7-7-7-7-7-7-7-7-0-0-0-0-0-0-0--3-3-3-3-3-3-3-3-8-5-10-13-12-|
8-8-8-8-8-8-8--7-7-7-7-7-7-7-7-0-0-0-0-0-0-0------------------8-5-10-13-12-|

--------------------------------------------------|
--------------------------------------------------|
--------------------------------------------------|
------0--8-0------8-5-10-13-12~-------0-----8-8-8-|
------0--8-0------8-5-10-13-12~-------0-----0-0-0-|
------0--8-0------8-5-10-13-12~-------0-----0-0-0-|
                                            . . .
Breakdown
---------------------------------------------------------------------|
---------------------------------------------------------------------|
---------------------------------------------------------------------|
0~-----0-0-0-0-0-0-0-0-0-8-8-8-0-0-0-8-0-0-0-0-0-0-0-0--8-5-10-13-12-|
0~-----0-0-0-0-0-0-0-0-0-0-0-0-0-0-0-8-0-0-0-0-0-0-0-0--8-5-10-13-12-|
0~-----0-0-0-0-0-0-0-0-0-0-0-0-0-0-0-8-0-0-0-0-0-0-0-0--8-5-10-13-12-|
       . . . . . . . . . . . .   . .     . . . . . . .

---------------------------------------------------------------------|
---------------------------------------------------------------------|
---------------------------------------------------------------------|
-------0-0-0-0-0-0-0-0-0-8-8-8-0-0-0-8-0-0-0-0-0-0-0-0--8-5-10-13-12-|
-------0-0-0-0-0-0-0-0-0-0-0-0-0-0-0-8-0-0-0-0-0-0-0-0--8-5-10-13-12-|
-------0-0-0-0-0-0-0-0-0-0-0-0-0-0-0-8-0-0-0-0-0-0-0-0--8-5-10-13-12-|
       . . . . . . . . . . . .   . .     . . . . . . .

--------------------------------------------------------------------|
--------------------------------------------------------------------|
--------------------------------------------------------------------|
0-0-0-0-0-0-0-0-0-0-0-0-8-8-8-0-0-0-8-0-0-0-0-0-0-0-0--8-5-10-13-12-| x2
0-0-0-0-0-0-0-0-0-0-0-0-0-0-0-0-0-0-8-0-0-0-0-0-0-0-0--8-5-10-13-12-|
0-0-0-0-0-0-0-0-0-0-0-0-0-0-0-0-0-0-8-0-0-0-0-0-0-0-0--8-5-10-13-12-|
. . . . . . . . . . . . . . .   . .     . . . . . . .

    Chorus
--------------------------------------------------------------------|
--------------------------------------------------------------------|
----------5-5------------------------------------------10-10-9-9-10-|
0-0-0-0-0-5-5-0--0-0-0-7-7-7-7-8-8-8-8-8-8-8-10--10-10--x--x-x-x--x-|
0-0-0-0-0-3-3-0--0-0-0-7-7-7-7-8-8-8-8-8-8-8-10--10-10--8--8-7-7--8-| x2
0-0-0-0-0-----0--0-0-0-7-7-7-7-8-8-8-8-8-8-8-10--10-10--------------|

Half time chorus
------------------------------------------------------------------------|
------------------------------------------------------------------------|
----------------------------------------------5-5-5-5-5-5-5-5---------5-|
8-8-8-8-8-8-8--7-7-7-7-7-7-7-7-0-0-0-0-0-0-0--5-5-5-5-5-5-5-5--end on-5-|
8-8-8-8-8-8-8--7-7-7-7-7-7-7-7-0-0-0-0-0-0-0--3-3-3-3-3-3-3-3---------3-|
8-8-8-8-8-8-8--7-7-7-7-7-7-7-7-0-0-0-0-0-0-0----------------------------|
Добавлено: 05.12.2013
Другие материалы по этой песне:
  • Аккорды и текст

Страница создана 05.12.2013
http://primanota.ru/no-bragging-rights/cycles-chords.htm
Привет, Гость.
Предлагаем пройти революционный курс по гитаре.
Подарок от PrimaNota.Ru, забирай!