PrimaNota.ru - самый крупный в мире бесплатный архив песенных текстов, аккордов, табулатур и нот


No Bragging Rights - Blind Faith - таба, видео

Регистрация Запомнить меня
Войти через:  Facebook Google Twitter Vk Yandex Mail.ru

No Bragging Rights - Blind Faith - таба, видео

Печатать
Просмотров: 128
Уроки эстрадного вокала в Санкт-Петербурге
                       Blind Faith- No Bragging Rights 
Tabbed by:anonymous
Email:anonymous

Tuning:Drop C (CGCFAD) LEAD GUITAR
  INTRO RIFF
e|---------------------------------------------------------------------------|
B|-------15(x10)-------------------------------------------------------------|
G|--------------14(x8)15(x14)12(x10)12/14-14(x6)-----------------------------|
D|12(x14)--------------------------------------------------------------------|(x4)
A|---------------------------------------------------------------------------|
E|---------------------------------------------------------------------------|
  VERSE TRANSITION
e|---------------------------------------------------------------------------|
B|---------------------------------------------------------------------------|
G|---------------------------------------------------------------------------|
D|---------------------------------------------------------------------------|
A|0-~---------1-0-00-4-3-00-1------------------------------------------------|
E|0-~---------1-0-00-4-3-00-1------------------------------------------------|
                  ..     ..
  VERSE
e|---------------------------------------------------------------------------|
B|---------------------------------------------------------------------------|
G|---------------------------------------------------------------------------|
D|0--------------------------------------------------------------------------|
A|0---------------------------------13---------------------------------------|
E|0-00000000000000-8\5-00-5/12-00-12-----------------------------------------|
    ..............     ..      ..
e|---------------------------------------------------------------------------|
B|-------------------------10h11h10------------------------------------------|
G|-----------------9h10h9----------101099------------------------------------|
D|0----------------------11--------------1111--------------------------------|
A|0--------------------------------------------------------------------------|
E|0-00000000000000-----------------------------------------------------------|
    ..............        .         . ... . .                                
e|---------------------------------------------------------------------------| 
B|---------------------------------------------------------------------------|
G|---------------------------------------------------------------------------|
D|0--------------------------------------------------------------------------|
A|0---------------------------------13---------------------------------------|
E|0-00000000000000-8/5-00-5\12-00-12-----------------------------------------|
    ..............     ..      ..
e|---------------------------------------------------------------------------|
B|---------------------------------------------------------------------------|
G|---------------------------------------------------------------------------|
D|---------------------------------------------------------------------------|
A|0----------------1-0----4-3----1-------------------------------------------|(x2)
E|0-00000000000000-1-0-00-4-3-00-1-------------------------------------------|
    ..............     ..     ..
  BRIDGE 1
e|---------------------------------------------------------------------------|
B|---------------------------------------------------------------------------|
G|---------------------------------------------------------------------------|
D|---------------------------------------------------------------------------|
A|0----0-00----0--0----0--1-0----4-3----1------------------------------------|(x2)
E|000000-000000000000000001-0-00-4-3-00-1------------------------------------|
   ....    .... .. .... ..    ..     ..
  TRANSITION TO CHORUS 1
e|---------------------------------------------------------------------------|
B|---------------------------------------------------------------------------|
G|---------------------------------------------------------------------------|
D|0-~-----pickscrape---------------------------------------------------------|
A|0-~------------------------------------------------------------------------|
E|0-~------------------------------------------------------------------------|
  CHORUS
e|-----------------------------------------------------------------------------|
B|-----------------------------------------------------------------------------|
G|7-77-7-7-7--9--9-9-10-10-10-9----------------------7-77-7-7-7-9-99-10--141414|
D|-----------------------------------------------------------------------------|
A|5-55-5-5-5--7--7-7--8--8--8-7-0---------0----------5-55-5-5-5-7-77-8---121212|
E|------------------------------0-00-0-0-00-00-0-0-0---------------------------|
                                  .. . . .  .. . . .
e|---------------------------------------------------------------------------|
B|---------------------------------------------------------------------------|
G|---------------------7-77-9-7-7-7-9-99-10-9-9-9-10-~-------5-55-5-5-5------|
D|---------------------------------------------------10-~--------------------|
A|0---------0----------5-55-7-5-5-5-7-77--8-7-7-7-------12-~-3-33-3-3-3------|
E|0-00-0-0-00-00-0-0-0-------------------------------------------------------|
    .. . . .  .. . . .
e|---------------------------------------------------------------------------|
B|------------------------5--------------------------------------------------|
G|7-77-7-7-7-9-99-9----6h7---------------------------------------------------|
D|------------------7h8------------------------------------------------------|
A|5-55-5-5-5-7-77-7----------------------------------------------------------|
E|---------------------------------------------------------------------------|

  VERSE (x1)
  
  BREAKDOWN 1 TRANSITION
e|---------------------------------------------------------------------------|
B|---------------------------------------------------------------------------|
G|---------------------------------------------------------------------------|
D|1-~------------------------------------------------------------------------|
A|1-~------pickscrape--------------------------------------------------------|
E|1-~------------------------------------------------------------------------|

  BREAKDOWN 1
e|---------------------------------------------------------------------------|
B|---------------------------------------------------------------------------|
G|---------------------------------------------------------------------------|
D|---------------------------------------------------------------------------|
A|0-0-0-0--0--0--0--000-000-0--0-0-0-0--0--0--0------------------------------|(x2)
E|0-0-0-0--0--0--0--000-000-0--0-0-0-0--0--0--0------------------------------|
  . . . .  .  .  .  ... ... .  . . . .  .  .  . 
  CHORUS (x1)
  
  INTRO RIFF (alternated)
e|---------------------------------------------------------------------------|
B|-------15(x10)-------------------------------------------------------------|
G|--------------14(x8)15(x14)12(x10)12/14-14(x6)-----------------------------|
D|12(x14)--------------------------------------------------------------------|(x3)
A|---------------------------------------------------------------------------|
E|---------------------------------------------------------------------------|

e|---------------------------------------------------------------------------|
B|-------15(10x)-------------------------------------------------------------|
G|--------------14(8x)15(x17)------------------------------------------------|
D|12(x14)--------------------------------------------------------------------|
A|---------------------------------------------------------------------------|
E|---------------------------------------------------------------------------|
  
  BREAKDOWN 2
e|---------------------------------------------------------------------------|
B|---------------------------------------------------------------------------|
G|---------------------------------------------------------------------------|
D|---------------------------------------------------------------------------|
A|000000000--000---00-00-0-000----000000000--000---0--0--0-000---------------|
E|000000000--000---00-00-0-000----000000000--000---00-00-0-000---------------|
  .........  ...   .. .. . ...    .........  ...   .  .  . ...
  CHORUS TRANSITION 2
e|---------------------------------------------------------------------------|
B|---------------------------------------------------------------------------|
G|-7-~--9~-------------------------------------------------------------------|
D|------------pickscrape-----------------------------------------------------|
A|-5-~--7~-------------------------------------------------------------------|
E|---------------------------------------------------------------------------|

  CHORUS (x1)

  OUTRO
e|---------------------------------------------------------------------------|
B|---------------------------------------------------------------------------|
G|---------------------------------------------------------------------------|
D|---------------------------------------------------------------------------|
A|0-0-0-0--0--0--0-----------------------------------------------------------|
E|0-0-0-0--0--0--0-----------------------------------------------------------|
  . . . .  .  .  .
e|---------------------------------------------------------------------------|
B|---------------------------------------------------------------------------|
G|---------------------------------------------------------------------------|
D|---------------------------------------------------------------------------|
A|0-0-0-0--0--0--0--000-000-0--0-0-0-0--0-0----------------------------------|
E|0-0-0-0--0--0--0--000-000-0--0-0-0-0--0-0-0--0-0--0-0----------------------|
  . . . .  .  .  .  ... ... .  . . . .  . .    .    .


************************************

| /   slide up
| \   slide down
| h   hammer-on
| ~   let ring
| .   palm mute

************************************
Добавлено: 13.07.2012
Другие материалы по этой песне:

Страница создана 28.02.2012
http://primanota.ru/no-bragging-rights/blind-faith-chords.htm
Привет, Гость.
Предлагаем пройти революционный курс по гитаре.
Подарок от PrimaNota.Ru, забирай!